PrimaNota.ru - самый крупный в мире бесплатный архив песенных текстов, аккордов, табулатур и нот


Behind Crimson Eyes - Empty Promises - текст песни, таба, видео

Регистрация Запомнить меня
Войти через:  Facebook Google Twitter Vk Yandex Mail.ru

Behind Crimson Eyes - Empty Promises - текст песни, таба, видео

Печатать
Просмотров: 148
Band: Behind crimson eyes
Song: Empty promises
Album: Pavour nocturnus (2005 EP)
Tabbed by: Darcy Baylis
Email: escape_artists_never_die17@hotmail.com

Preface: Hi. The band actually tune their guitars standard, but i worked this out when
guitar was drop tuned, but if yours is standard, just tune it to drop c and play
2 lower. Guitar 1 is mostly the chords, and guitar 2 is mostly picking. This tab sounds 
to me, email me to tell me what you think.


=======================================
h=hammer-on
b=bend
x=scratch note
p=pickslide
//=slide up
=slide down
.=palm mute
x+a number=number of times you play it
=======================================

Intro: (guitar 1)
d-----------------------------------|
a-----------------------------------|
f-7-x24-----------------------------|
c-7-------7--x29--2---5-x10-7-x9----|
g-5-------7-------2---5-----7-------|
a---------7-------2---5-----7-------|

Intro: (guitar 2) [listen to song to figure out how many times you play it]
d-------5---------5--------5--|
a-0-3-0--0-3-0-3-3--0-3-0-----|
f-----------------------------|
c-----------------------------|
g-----------------------------|
a-----------------------------|

Verse 1: (Guitar 1)
d---------5----------5-----------5-----------5---|
a---2---3----2---3-------0---2-------0---2-------|
f------------------------------------------------|
c------------------------------------------------|
g------------------------------------------------|
a------------------------------------------------|

Verse 1: (Guitar 2)
d---------10--------------10---------10----------10-|
a-7---8-----------7---8-------5---6-----5---6-------|
f---------------------------------------------------|
c---------------------------------------------------|
g---------------------------------------------------|
a---------------------------------------------------|


Pre-chorus: (guitar 1)
d-----------------------------------------------------------------|
a-----------------------------------------------------------------|
f-----------------------------------------------------------------|
c-9-9-9-9-9--9-9-9---5--9-9-9-9-9--9-9-9-9--5-5-5-5-5---7-7-7-7-7-|
g-9-9-9-9-9--9-9-9---5--9-9-9-9-9--9-9-9-9--5-5-5-5-5---7-7-7-7-7-|
a-9-9-9-9-9--9-9-9---5--9-9-9-9-9--9-9-9-9--5-5-5-5-5---7-7-7-7-7-|

Pre-chorus: x2 (guitar 2)
d---------5-------|
a-0-3-0-3--3-3-0--|
f-----------------|
c-----------------|
g-----------------|
a-----------------|

Chorus is the same as the intro except on the first chord the play the open bottom
aswell.

Verse 2: (Guitar 1)
d--------------------------------------|
a--------------------------------------|
f--------------------------------------|
c-9-----12-----9------12-------5-------|
g-9-----12-----9------12-------5-------|
a-9-x7--12-x9--9--x7--12--x9---5--x28--|
  ...............................
Guitar 2 plays the same as its verse 1 part, except this time, after everytime guitar 1
its part, guitar 2 plays this:
d-1h2p1---|
a-------2-|
f---------|
c---------|
g---------|
a---------|

Then play chorus
Then bridge: (both guitars)
d-------------------------------------------------|
a-------------------------------------------------|
f-------------------------------------------------|
c-5-5-5-5-5--7-7-7-7-7---9-9-9-9-9---9-9---7-7-7--|
g-5-5-5-5-5--7-7-7-7-7---9-9-9-9-9---9-9---7-7-7--|
a-5-5-5-5-5--7-7-7-7-7---9-9-9-9-9---9-9---7-7-7--|

Then gradually fade out chorus.

Please rate this tab, good luck.
Добавлено: 14.07.2012
Другие материалы по этой песне:
  • Аккорды и текст

Страница создана 13.04.2012
http://primanota.ru/behind-crimson-eyes/empty-promises-chords.htm
Привет, Гость.
Предлагаем пройти революционный курс по гитаре.
Подарок от PrimaNota.Ru, забирай!