PrimaNota.ru - самый крупный в мире бесплатный архив песенных текстов, аккордов, табулатур и нот


Behind Crimson Eyes - Cherry Blossom Epitaph - бас-таба, видео

Регистрация Запомнить меня
Войти через:  Facebook Google Twitter Vk Yandex Mail.ru

Behind Crimson Eyes - Cherry Blossom Epitaph - бас-таба, видео

Печатать
Просмотров: 172
Уроки эстрадного вокала в Санкт-Петербурге
Band:		BEHIND CRIMSON EYES
Song:		CHERRY BLOSSOM EPITAPH (BASS)
Album/EP:	PROLOGUE – ART OF WAR/CHERRY BLOSSOM EPITAPH 
Label:		BOOMTOWN RECORDS (AUS)
Bassist:	PRASHANT RAJU (Now Garth Buchanan)
Tuning:		Standard (GDAE)

Intro/Verse x4 (0.08)

G|-----------------------------------------------------------|
D|-----------------------------------------------------------|
A|-----------------------------------------------------------|
E|--666-6-666-6-333-3-333-3----------------------------------|

Chorus x2

G|-----------------------------------------------------------|
D|-----------------------------------------------------------|
A|-----------------------------------------------------------|
E|--333-333-3-888-888-8-555-555-5-333-333-3------------------|

Pre Verse x1

G|------------------|
D|------------------|
A|------------------|
E|--3~--5-5~~-------|

Intro/Verse x4

G|-----------------------------------------------------------|
D|-----------------------------------------------------------|
A|-----------------------------------------------------------|
E|--666-6-666-6-333-3-333-3----------------------------------|

Pre Chorus x1

G|--------------------|
D|--------------------|
A|--------------------|
E|---5~~--------------|

Chorus x2

G|-----------------------------------------------------------|
D|-----------------------------------------------------------|
A|-----------------------------------------------------------|
E|--333-333-3-888-888-8-555-555-5-333-333-3------------------|

Pre Breakdown x1

G|----------------------------|
D|----------------------------|
A|----------------------------|
E|---5~~---5~~----------------|



Breakdown Part 1 x4

G|---------------------------------------|
D|---------------------------------------|
A|----------3----------------------------|
E|--333--5----3—-222-2-222-2-------------|

Breakdown Part 2 x1

G|-----------------------------------------------------------|
D|-----------------------------------------------------------|
A|-----------------------------------------------------------|
E|-333333333333-55555555555-777777777777-999999999999--------|

Chorus x2

G|-----------------------------------------------------------|
D|-----------------------------------------------------------|
A|-----------------------------------------------------------|
E|-333-333-3-888-888-8-555-555-5-333-333-3-------------------|

Outro x1

G|----------|
D|----------|
A|----------|
E|--5~~-----|
Добавлено: 22.05.2012
Другие материалы по этой песне:
  • Аккорды и текст

Страница создана 22.05.2012
http://primanota.ru/behind-crimson-eyes/cherry-blossom-epitaph-chords.htm
Привет, Гость.
Предлагаем пройти революционный курс по гитаре.
Подарок от PrimaNota.Ru, забирай!