PrimaNota.ru - самый крупный в мире бесплатный архив песенных текстов, аккордов, табулатур и нот


Beherit - Unholy Pagan Fire - таба, видео

Регистрация Запомнить меня
Войти через:  Facebook Google Twitter Vk Yandex Mail.ru

Beherit - Unholy Pagan Fire - таба, видео

Печатать
Просмотров: 183
Song - Unholy Pagan Fire

Band - Beherit

Album - Drawing Down The Moon


Riff 1

   Q    E  E  Q    Q       Q    E  E  Q    Q       Q    E  E  Q    Q     
|-----------------------|-----------------------|-----------------------|
|-----------------------|-----------------------|-----------------------|
|-----------------------|-----------------------|-----------------------|
|-----------------------|-----------------------|-----------------------|
|--2----2--2--2----2----|--2----2--2--2----2----|--4----4--4--4----4----|
|--0----0--0--0----0----|--0----0--0--0----0----|--2----2--2--2----2----|


   Q    E  E  Q      Q                                                     
|-------------------------|
|-------------------------|
|-------------------------|
|-------------------------|
|--4----4--4--5----4g5----|
|--2----2--2--3----2g3----|


Riff 2

   W                   W                   W                 
|-------------------|-------------------|-------------------|
|-------------------|-------------------|-------------------|
|-------------------|-------------------|-------------------|
|-------------------|-------------------|-------------------|
|--6----------------|--6----------------|--6----------------|
|--4----------------|--4----------------|--4----------------|


   W                                                                         
|-------------------|
|-------------------|
|-------------------|
|-------------------|
|--6----------------|
|--4----------------|


Riff 3

   H        H           Q     Q    Q     Q             
|--------------------|------------------------|
|--------------------|------------------------|
|--------------------|------------------------|
|--------------------|------------------------|
|--6--------7--------|--6s----9----9s----8----|
|--4--------5--------|--4s----7----7s----6----|


Riff 4

   E  E  E  E  E  E  E  E     E  E  E  E  E  E  E  E   
|--------------------------|--------------------------|
|--------------------------|--------------------------|
|--------------------------|--------------------------|
|--------------------------|--------------------------|
|--6--6--6--6--7--7--7--7--|--6--6--6--6--9--9--9--9--|
|--4--4--4--4--5--5--5--5--|--4--4--4--4--7--7--7--7--|


Riff 5

   H        H           H        Q    Q                                     
|--------------------|---------------------|
|--------------------|---------------------|
|--------------------|---------------------|
|--------------------|---------------------|
|--6--------6--------|--6--------4----4----|
|--4--------4--------|--4--------2----2----|


Riff 6

   Q    E  E  Q    E  E     Q    E  E  Q    Q       Q    E  E  Q    E  E   
|------------------------|-----------------------|------------------------|
|------------------------|-----------------------|------------------------|
|------------------------|-----------------------|------------------------|
|------------------------|-------------9---------|------------------------|
|--6----6--6--6----6--6--|--6----6--6--7----9----|--6----6--6--6----6--6--|
|--4----4--4--4----4--4--|--4----4--4-------7----|--4----4--4--4----4--4--|


   Q    E  E  Q    Q                                                             
|-----------------------|
|-----------------------|
|-----------------------|
|-----------------------|
|--6----6--6--7----7----|
|--4----4--4--5----5----|


Song Structure:

Riff 1 x5
Riff 2 x2
Riff 3 x2
Riff 4 x2
Riff 3 x2
Riff 5 x4
Riff 6 x4
Riff 2 x2
Riff 3 x2
Riff 4 x2
Riff 3 x2
Riff 5 x4
Riff 3 x4
Riff 5 x4
Riff 3 Till fade out
Добавлено: 25.03.2012
Вам также может быть интересно:
Другие материалы по этой песне:

Страница создана 25.03.2012
http://primanota.ru/beherit/unholy-pagan-fire-chords.htm
Привет, Гость.
Предлагаем пройти революционный курс по гитаре.
Подарок от PrimaNota.Ru, забирай!