PrimaNota.ru - самый крупный в мире бесплатный архив песенных текстов, аккордов, табулатур и нот


Behemoth - The Reign Of Shemsu Hor - таба, видео

Регистрация Запомнить меня
Войти через:  Facebook Google Twitter Vk Yandex Mail.ru

Behemoth - The Reign Of Shemsu Hor - таба, видео

Печатать
Просмотров: 156
-------------------------------------------------------------------------------
                        The Reign Of Shemsu Hor - Behemoth
-------------------------------------------------------------------------------
Tabbed by:Greg M.

Tuning: Drop Bb

Boring Intro
Cb|----------------------| Repeat this for a while
Gb|----------------------|
Eb|[2]------7---6--------|
Bb|-0-------7---6--------|
Fb|-0-------5---4--------|
Bb|-0--------------------|

Then the first little cool thingy:

Cb|---------------------------------------------------------------|
Gb|---------------------------------------------------------------|
Eb|---------------------------------------------------------------|
Bb|-1-0--0-0-0--0-0--00000-00000--0---0-0-0---00--8-7-5-4-1-0-----|
Fb|-1-0--0-0-0--0-0--00000-00000--0---0-0-0---00----------1-0-----|Repeat
Bb|-1-0--0-0-0--0-0--00000-00000--0---0-0-0---00----------1-0-----|this too.
         . . .  . .  ..... .....      . . .   ..

Play the boring intro again, then the clean part:

Cb|-----------------|
Gb|-2---2---2-------|
Eb|--0---0---0------|
Bb|---0---0---0-----|
Fb|----0---0---0----|
Bb|-----------------|


Riff One: The palm muted thing breaks in during the last clean set.
Cb|---------------|---------------------------------------------------------|
Gb|---------------|---------------------------------------------------------|
Eb|---------------|---------------------------------------------------------|
Bb|-4-1-0-5-4-1-4-|--00-0000-0000---------0000--1---4---4-3-1-3-1-0---------|
Fb|-4-1-0-5-4-1-4-|--00-0000-0000---------0000--1---4-----------------------|
Bb|-4-1-0-5-4-1-4-|--00-0000-0000-8877557-0000--1-0-4-----------------------|
    . . . . . . .    .. .... .... ....... ....    .
On riff one, the opens might not be correct, but they're obvious when you hear the song.


Riff 2            Repeat this        Second ending:Come down from the octaves
Cb|-------------------------------------|----------------------------------|
Gb|-------------------------------------|----------------------------------|
Eb|-------------15-15-14-14-12-12-11----|----------------------------------|
Bb|---------------------------------1-0-|-1--4-1-0-------------------------|
Fb|-------------13-13-12-12-10-10-9-1-0-|-1--4-1-0-------------------------|
Bb|0-0-0-0-0-0-0--------------------1-0-|-1--4-1-0-------------------------|

Rhythm under all solos:
Cb|------------------------------------------------------------------------|
Gb|------------------------------------------------------------------------|
Eb|------------------------------------------------------------------------|
Bb|-0--1--4--3-1-0---------------------------------------------------------|
Fb|-0--1--4--3-1-0---------------------------------------------------------|
Bb|-0--1--4--3-1-0---------------------------------------------------------|

Riff 3                                                   This ends it.
Cb|-----------------------------------------------------|-------------------|
Gb|-----------------------------------------------------|-------------------|
Eb|--------------12-11-8-7-----------12-11-8-5----------|--7-8-5-7----------|
Bb|-0--0-0--0--------------0--0-0--0-----------0-0-0--1-|-------------------|
Fb|-0--0-0--0----10-9--6-5-0--0-0--0-10-9--6-3-0-0-0--1-|--5-6-3-5----------|
Bb|-0--0-0--0--------------0--0-0--0-----------0-0-0--1-|-------------------|
       . .                    . .              . . .
There is another open break down here; it's all open Bb.

Riff 4
Cb|------------------------------------------------------------------------|
Gb|------------------------------------------------------------------------|
Eb|------------------------------------------------------------------------|
Bb|-0-10-9-7--6--3-6--3-0--10-9-7-6-----1-0--------------------------------|
Fb|-0-8--7-5--4--1-4--1-0--8--7-5-4-4-5-1-0--------------------------------|
Bb|-0-------------------0-----------4-5-1-0--------------------------------|


Then to close the song, there's:
Cb|------------------------------------------------------------------------|
Gb|------------------------------------------------------------------------|
Eb|------------------------------------------------------------------------|
Bb|-0-0-0-1---------------------------------------------------------------------|
Fb|-0-0-0-1---------------------------------------------------------------------|
Bb|-0-0-0-1---------------------------------------------------------------------|
      . . 




| /  slide up
| \  slide down
| h  hammer-on
| p  pull-off
| ~  vibrato
| +  harmonic
| x  Mute note
===============================================================================
Добавлено: 08.03.2012
Другие материалы по этой песне:

Страница создана 08.03.2012
http://primanota.ru/behemoth/the-reign-of-shemsu-hor-chords.htm
Привет, Гость.
Предлагаем пройти революционный курс по гитаре.
Подарок от PrimaNota.Ru, забирай!