PrimaNota.ru - самый крупный в мире бесплатный архив песенных текстов, аккордов, табулатур и нот


Beheaded - Depths Of Sore - таба, видео

Регистрация Запомнить меня
Войти через:  Facebook Google Twitter Vk Yandex Mail.ru

Beheaded - Depths Of Sore - таба, видео

Печатать
Просмотров: 85
Band: Beheaded
Album: Ominous Bloodline
Song: Depths Of Sore


-    -   palm mute          / - slide up to
\    -   slide down to      ~ - vibrato
h    -   hammer on          b - Bend
p    -   pull off           Suffixes for bend
t    -   tap                f - full bend     h - half bend
ph   -   pinched harmonic   q - quarter bend t - tap bend
*    -   see comment        ^ - Hold bend     r release bend
x    -   Stuccatto          ~ - vibrato bend
,    -   slight palm mute   () - ghost note, sustained note
"    -   tremolo note       <> - Trill

guitar one = left (top on tab)
guitar two = right (bottom on tab)

Tuning is a 7-string guitar tuned two whole steps down (G,C,F,Bb,Eb,G,C) [low to high]

Riff 1 (0:00) [both guitars] x2
C ||----------------------------||
G ||----------------------------||
Eb||----------------------------||
Bb||----------------------------||
F ||----------------------------||
C ||-3-2------------------------||
G ||-1-0------------------------||
     .



Riff 2 (0:07) x3
C ||------------------------------------------------------------------------------------------------||
G ||------------------------------------------------------------------------------------------------||
Eb||------------------------------------------------------------------------------------------------||
Bb||------------------------------------------------------------------------------------------------||
F ||----------------------------------------------------------------------------------------------6-||
C ||-3-2-5-5-7-7-7-7-7-7-7-7-7-7-5-5-7-7-8-8-8-8-8-8-8-8-8-8-3-2-5-5-7-7-7-7-7-7-7-7-7-7-8--7--5--4-||
G ||-1-0-----------------------------------------------------1-0------------------------------------||
  | .                                                        .
  |
C ||------------------------------------------------------------------------------------------------||
G ||------------------------------------------------------------------------------------------------||
Eb||------------------------------------------------------------------------------------------------||
Bb||------------------------------------------------------------------------------------------------||
F ||------------------------------------------------------------------------------------------------||
C ||-3-2-----------------------------------------------------3-2------------------------------------||
G ||-1-0-----------------------------------------------------1-0------------------------------------||
     .                                                       .
Riff 2A (0:27) x3
C ||------------------------------------------------||
G ||------------------------------------------------||
Eb||------------------------------------------------||
Bb||------------------------------------------------||
F ||-----7/9-9---7/9/10-10--------------10-9--7--6--||
C ||-3-2-5/7-7---5/7/8--8---3-2-5/7-7---8--7--5--4--||
G ||-1-0--------------------1-0---------------------||
  | .                       .
  |
C ||------------------------------------------------||
G ||------------------------------------------------||
Eb||------------------------------------------------||
Bb||------------------------------------------------||
F ||------------------------------------------------||
C ||-3-2--------------------3-2---------------------||
G ||-1-0--------------------1-0---------------------||
     .                      .



Riff 3 (0:40) [both guitars] x2
C ||-------------------------------------------------||
G ||-------------------------------------------------||
Eb||-------------------------------------------------||
Bb||----------------------6"-------------------------||
F ||----8"-7"----8"-7"-8"-------8"-7"----8"-7"-------||
C ||-------------------------------------------8"-6"-||
G ||-6"-------6"-------------5"-------5"-------------||



Riff 2B (0:53) x2
C ||------------------------------------------------||
G ||------------------------------------------------||
Eb||------------------------------------------------||
Bb||------------------------------------------------||
F ||---------------------------------------------6--||
C ||-3-2-5/7-7---5/7/8--8---3-2-5/7-7---8--7--5--4--||
G ||-1-0--------------------1-0---------------------||
  | .                       .
  |
C ||------------------------------------------------||
G ||------------------------------------------------||
Eb||------------------------------------------------||
Bb||------------------------------------------------||
F ||------------------------------------------------||
C ||-3-2--------------------3-2---------------------||
G ||-1-0--------------------1-0---------------------||
     .                      .



Riff 3 (1:07) [both guitars] x2
C ||-------------------------------------------------||
G ||-------------------------------------------------||
Eb||-------------------------------------------------||
Bb||----------------------6"-------------------------||
F ||----8"-7"----8"-7"-8"-------8"-7"----8"-7"-------||
C ||-------------------------------------------8"-6"-||
G ||-6"-------6"-------------5"-------5"-------------||
Riff 1 (1:20) [both guitars] x4
C ||----------------------------||
G ||----------------------------||
Eb||----------------------------||
Bb||----------------------------||
F ||----------------------------||
C ||-3-2------------------------||
G ||-1-0------------------------||
     .



Riff 4 (1:33) [both guitars] x1
C ||----------------------------||
G ||----------------------------||
Eb||----------------------------||
Bb||----------------------------||
F ||----------------------------||
C ||-8--7--3--4-----------------||
G ||-6--5--1--2-----------------||

End.
Добавлено: 18.09.2013
Другие материалы по этой песне:
  • Аккорды и текст

Страница создана 18.09.2013
http://primanota.ru/beheaded/depths-of-sore-chords.htm
Привет, Гость.
Предлагаем пройти революционный курс по гитаре.
Подарок от PrimaNota.Ru, забирай!