PrimaNota.ru - самый крупный в мире бесплатный архив песенных текстов, аккордов, табулатур и нот


Before You Exit - What Makes You Beautiful - таба, видео

Регистрация Запомнить меня
Войти через:  Facebook Google Twitter Vk Yandex Mail.ru

Before You Exit - What Makes You Beautiful - таба, видео

Печатать
Просмотров: 187
Hey! im xton and this is my first tab.! Hope you like it :P
this Tab is 97% acurate XD.



============================================================
             What makes you beautiful - Before you exit
============================================================
Gt1
Intro: 
e|-------------------------------------------------------|
B|-------------------------------------------------------|
G|-9-----------------9-----------------------------------|
D|-9--6/7--8/88888---9--6/7--8/88888---------------------|
A|-7--6/7--8/88888---7--6/7--8/88888---------------------|
E|----4/5--6/77777------4/5--6/77777---------------------|

Verse 1 :
e|-------------------------------------------------------|
B|-------------------------------------------------------|
G|-9-----------------9-----------------------------------|
D|-9--6/7--8/88888---9--6/7--8/88888---------------------|
A|-7--6/7--8/88888---7--6/7--8/88888---------------------|
E|----4/5--6/77777------4/5--6/77777---------------------|

e|-------------------------------------------------------|
B|-------------------------------------------------------|
G|-9-----------------9-----------------------------------|
D|-9--6/7--8/88888---9--6/7--8/88888---------------------|
A|-7--6/7--8/88888---7--6/7--8/88888---------------------|
E|----4/5--6/77777------4/5--6/77777---------------------||

Everyone else in the room can see it
GT1
e|-------------------------------------------------------|
B|-------------------------------------------------------|
G|-9-------------------9---------------------------------|
D|-9--6/7--10/88888----9--6/77--8~-----------------------|
A|-7--6/7--10/88888----7--6/77--8~-----------------------|
E|----4/5---9/77777-------4/55--7~-----------------------|

GT2
e|--------------------------------------------|
B|---6-6-6-6-6-6------------------------------|
G|---4-4-4-4-4-4------------------------------|
D|--------------------------------------------|
A|--------------------------------------------|
E|--------------------------------------------|


Chorus:

GT1:
Baby you light up my world like nobody else
e|------------------------------------------------------------------------|
B|------------------------------------------------------------------------|
G|-4444-4444-4444----4444-4444-4444---------------------------------------|
D|-2222-2222-4444----2222-2222-4444---------------------------------------|
A|-2222-0000-2222----2222-0000-2222---------------------------------------|
E|------------------------------------------------------------------------|

e|--------------------------------------------------------------|
B|--------------------------------------------------------------|
G|--4444-4444-666\4444--4444-4444-4444--------------------------|
D|--2222-2222-666\4444--2222-2222-4444--------------------------|
A|--2222-0000-444\2222--2222-0000-2222--------------------------|
E|--------------------------------------------------------------|

GT2 : Continious Playing
e|--------------------------------|
B|--------------------------------|
G|--11----------------------------|
D|--9-----------------------------|
A|--7-----------------------------|
E|--------------------------------|

If only you saw what I can see
GT1
e|------------------------------------------------------------------------|
B|------------------------------------------------------------------------|
G|-4444-4444-4444----4444-4444-4444---------------------------------------|
D|-2222-2222-4444----2222-2222-4444---------------------------------------|
A|-2222-0000-2222----2222-0000-2222---------------------------------------|
E|------------------------------------------------------------------------|

e|--------------------------------------------------------------|
B|--------------------------------------------------------------|
G|--4444-4444-666\4444--4444-4444-4444-4444-4444-4444-----------|
D|--2222-2222-666\4444--2222-2222-4444-2222-2222-4444-----------|
A|--2222-0000-444\2222--2222-0000-2222-2222-0000-2222-----------|
E|--------------------------------------------------------------|

GT2 : Continious Playing
e|--------------------------------|
B|--------------------------------|
G|--12----------------------------|
D|--9-----------------------------|
A|--------------------------------|
E|--------------------------------|

e|-------------------|
B|-------------------|
G|-9-----------------|
D|-9--6/7--10/88888--|
A|-7--6/7--10/88888--|
E|----4/5---9/77777--|

Repeat Verse 1:
Repeat Chorus:



Bridge:
GT1
e|-------------------|
B|-------------------|
G|-9-----------------|
D|-9--6/7--10/88888--|
A|-7--6/7--10/88888--|
E|----4/5---9/77777--|

GT2 : Continious Playing
e|--------------------------------|
B|--------------------------------|
G|--12----------------------------|
D|--9-----------------------------|
A|--------------------------------|
E|--------------------------------|


Chorus:

e|-0~-0~-0~--|
B|-0~-0~-0~--|
G|-0~-4~-4~--|
D|-2~-2~-4~--|
A|-2~-0~-2~--|
E|-0~--------|


e|-0~-0~----------|
B|-0~-0~----------|
G|-0~-4~-666-4444-|
D|-2~-2~-666-4444-|
A|-2~-0~-444-2222-|
E|-0~-------------|

chorus:

Baby you light up my world like nobody else
The way that you flip your hair gets me overwhelmed
But when you smile at the ground it ain't hard to tell

e|--------------------------------------------------------------|
B|--------------------------------------------------------------|
G|--4444-4444-666\4444--4444-4444-4444--------------------------|
D|--2222-2222-666\4444--2222-2222-4444--------------------------|
A|--2222-0000-444\2222--2222-0000-2222--------------------------|
E|--------------------------------------------------------------|

GT2 : Continious Playing
e|--------------------------------|
B|--------------------------------|
G|--11----------------------------|
D|--9-----------------------------|
A|--7-----------------------------|
E|--------------------------------|

If only you saw what I can see
GT1
e|------------------------------------------------------------------------|
B|------------------------------------------------------------------------|
G|-4444-4444-4444----4444-4444-4444---------------------------------------|
D|-2222-2222-4444----2222-2222-4444---------------------------------------|
A|-2222-0000-2222----2222-0000-2222---------------------------------------|
E|------------------------------------------------------------------------|

e|--------------------------------------------------------------|
B|--------------------------------------------------------------|
G|--4444-4444-666\4444--4444-4444-4444-4444-4444-4444-----------|
D|--2222-2222-666\4444--2222-2222-4444-2222-2222-4444-----------|
A|--2222-0000-444\2222--2222-0000-2222-2222-0000-2222-----------|
E|--------------------------------------------------------------|

GT2 : Continious Playing
e|--------------------------------|
B|--------------------------------|
G|--12----------------------------|
D|--9-----------------------------|
A|--------------------------------|
E|--------------------------------|

e|-------------------|
B|-------------------|
G|-9-----------------|
D|-9--6/7--10/88888--|
A|-7--6/7--10/88888--|
E|----4/5---9/77777--|
Добавлено: 06.12.2013
Другие материалы по этой песне:
  • Аккорды и текст

Страница создана 15.06.2013
http://primanota.ru/before-you-exit/what-makes-you-beautiful-chords.htm
Привет, Гость.
Предлагаем пройти революционный курс по гитаре.
Подарок от PrimaNota.Ru, забирай!