PrimaNota.ru - самый крупный в мире бесплатный архив песенных текстов, аккордов, табулатур и нот


Before Their Eyes - Why 6 Is Afraid Of 7 - таба, видео

Регистрация Запомнить меня
Войти через:  Facebook Google Twitter Vk Yandex Mail.ru

Before Their Eyes - Why 6 Is Afraid Of 7 - таба, видео

Печатать
Просмотров: 236
Уроки эстрадного вокала в Санкт-Петербурге
-------------------------------------------------------------------------------
                Why 6 Is Afraid Of 7 – Before Their Eyes
-------------------------------------------------------------------------------
Tabbed by: Blake Tyson (Tysonboy)
Email: StormWrestling09@aim.com
I did this by ears so i am about 100% sure that it isn't 100% correct.
If you have any suggestions or changes email me.


Tuning: Drop D

Intro

e|----------------------------------|
B|----------------------------------|
G|-88888888888888888888888888888888-|
D|-xxxxxxxxxxxxxxxxxxxxxxxxxxxxxxxx—|
A|-66666666666666666666666666666666—|
E|----------------------------------|
 P.M. 
 
Verse 1 (Two times)

e|-----------------------------------------------------------------------------|
B|-----------------------------------------------------------------------------|
G|-8888888888888888-101010101010101010101010-12121212121212121212121212121212--|
D|-xxxxxxxxxxxxxxxx-x-x-x-x-x-x-x-x-x-x-x-x---x-x-x-x-x-x-x-x-x-x-x-x-x-x-x-x--|
A|-6666666666666666-8-8-8-8-8-8-8-8-8-8-8-8—-10101010101010101010101010101010--|
E|-----------------------------------------------------------------------------|
  P.M.

e|----------------------------------|
B|----------------------------------|
G|-13131313131313131313131313131313-|
D|--x-x-x-x-x-x-x-x-x-x-x-x-x-x-x-x-|
A|-11111111111111111111111111111111-|
E|----------------------------------|
  P.M.


e|-------------------------------------------------------------|
B|-------------------------------------------------------------|
G|-----9999999999999999-----9999999999-3-3-3-3/99999999999-----| Play 2 times
D|-0-0-xxxxxxxxxxxxxxxx-0-0-xxxxxxxxxx-x-x-x-x/xxxxxxxxxxx-0-0-|
A|-0-0-7777777777777777-0-0-7777777777-1-1-1-1/77777777777-0-0-|
E|-0-0------------------0-0--------------------------------0-0-|

e|-------------------------|           |--------------------------|
B|-------------------------|           |--------------------------|
G|--9999999999999-3-3-3-3--|           |--------------------------|
D|--xxxxxxxxxxxxx-x-x-x-x--| 1st time  |-9-7-6--------------------| 2nd time
A|--7777777777777-1-1-1-1--|           |-------9—7-6--------------|
E|-------------------------|           |-------------11-9—7-6-4-2-|

Verse 2 (Two Times)

e|---------------------------------------------------------------------|
B|---------------------------------------------------------------------|
G|-8888888888888888-10101010101010101212121212121212-4444444444444444--|
D|-xxxxxxxxxxxxxxxx--x-x-x-x-x-x-x-x-x-x-x-x-x-x-x-x-xxxxxxxxxxxxxxxx--|
A|-6666666666666666-8-8-8-8-8-8-8-8-1010101010101010-2222222222222222--|
E|---------------------------------------------------------------------|
  P.M.

e|-------------------|
B|-------------------|
G|-6666666666666666--|
D|-xxxxxxxxxxxxxxxx--|
A|-4444444444444444--|
E|-------------------|
  P.M.


Chorus 1 (Two Times)

e|-----------------------------------------------------------------------|
B|-----------------------------------------------------------------------|
G|-----------------------------------------------------------------------|
D|--3333333333333333-6666666666666666-0000000000000000-2222222222222222--|
A|--3333333333333333-6666666666666666-0000000000000000-2222222222222222--|
E|--3333333333333333-6666666666666666-0000000000000000-2222222222222222--|

Verse 3

e|---------------------------------------------------------------------|
B|---------------------------------------------------------------------|
G|-8888888888888888-10101010101010101212121212121212-4444444444444444--|
D|-xxxxxxxxxxxxxxxx--x-x-x-x-x-x-x-x-x-x-x-x-x-x-x-x-xxxxxxxxxxxxxxxx--|
A|-6666666666666666-8-8-8-8-8-8-8-8-1010101010101010-2222222222222222--|
E|---------------------------------------------------------------------|
  P.M.

e|-------------------|
B|-------------------|
G|-6666666666666666--|
D|-xxxxxxxxxxxxxxxx--|
A|-4444444444444444--|
E|-------------------|
  P.M.


Chorus 2 (Two Times)

e|-----------------------------------------------------------------------|
B|-----------------------------------------------------------------------|
G|-----------------------------------------------------------------------|
D|--3333333333333333-6666666666666666-0000000000000000-2222222222222222--|
A|--3333333333333333-6666666666666666-0000000000000000-2222222222222222--|
E|--3333333333333333-6666666666666666-0000000000000000-2222222222222222--|


Interlude

e|---------------------------------------------------------------------|
B|---------------------------------------------------------------------|
G|---999999999999999---99999999-3-3-3-3/99999999999----999999999-3-3-3-|
D|-0-xxxxxxxxxxxxxxx-0-xxxxxxxx-x-x-x-x/xxxxxxxxxxx—-0-xxxxxxxxx-x-x-x-|
A|-0-777777777777777-0-77777777-1-1-1-1/77777777777—-0-777777777-1-1-1-|
E|-0-----------------0-------------------------------0-----------------|

e|-------------------------------------------------------------------|
B|--------------------------------------------10^--------------------|
G|-------------------------------------------------------------------|
D|-0~-x-0~-0-00—-0~-x-0~-0-0-0000—0/8-0-0/8p0------0/8-0-0/8-0-0000--|
A|-0~-x-0~-0-00—-0~-x-0~-0-0-0000—0/8-0-0/8p0------0/8-0-0/8-0-0000--|
E|-0~-x-0~-0-00—-0~-x-0~-0-0-0000—0/8-0 0/8p0------0/8-0-0/8-0-0000--|


Breakdown

e|------------|
B|-10---------|
G|----9-10-7--|
D|------------|  (Eight Times)
A|------------|
E|------------|


Chorus 3 (Two Times)

e|--------------------------------------------------------------------|
B|--------------------------------------------------------------------|
G|--------------------------------------------------------------------|
D|--3333333333333333-6666666666666666-0-0000-0-0000-2222222222222222--|
A|--3333333333333333-6666666666666666-0-0000-0-0000-2222222222222222--|
E|--3333333333333333-6666666666666666-0-0000-0-0000-2222222222222222--|


Outro

e|-------------------------------------------------------------|
B|-------------------------------------------------------------|
G|-----9999999999999999-----9999999999-3-3-3-3/99999999999-----| Play 2 times
D|-0-0-xxxxxxxxxxxxxxxx-0-0-xxxxxxxxxx-x-x-x-x/xxxxxxxxxxx-0-0-|
A|-0-0-7777777777777777-0-0-7777777777-1-1-1-1/77777777777-0-0-|
E|-0-0------------------0-0--------------------------------0-0-|

e|-------------------------|           |--------------------------|
B|-------------------------|           |--------------------------|
G|--9999999999999-3-3-3-3--|           |--------------------------|
D|--xxxxxxxxxxxxx-x-x-x-x--| 1st time  |-9-7-6--------------------| 2nd time
A|--7777777777777-1-1-1-1--|           |-------9—7-6--------------|
E|-------------------------|           |-------------11-9—7-6-4-2-|



| /  slide up
| \  slide down
| h  hammer-on
| p  pull-off
| ~  vibrato
| +  harmonic
| x  Mute note
===============================================================================
Добавлено: 12.07.2012
Другие материалы по этой песне:

Страница создана 28.02.2012
http://primanota.ru/before-their-eyes/why-6-is-afraid-of-7-chords.htm
Привет, Гость.
Предлагаем пройти революционный курс по гитаре.
Подарок от PrimaNota.Ru, забирай!