PrimaNota.ru - самый крупный в мире бесплатный архив песенных текстов, аккордов, табулатур и нот


Before Their Eyes - The Things We Stood Against - текст песни, таба, видео

Регистрация Запомнить меня
Войти через:  Facebook Google Twitter Vk Yandex Mail.ru

Before Their Eyes - The Things We Stood Against - текст песни, таба, видео

Печатать
Просмотров: 103
Tabbed by: Joshua Garcia (halofreak731@aol.com)

This is my first tab ever (so go easy). Seeing as no one else has tabbed
this song, I decided to be the first. Please rate and let me know if you
have any corrections. Thank you.


*Updated on 3/18/10 - Fixed the whole song. Really needed it since this was my first.


Tuning: Drop C# (C# G# C# F# A# D#)


Intro
Guitar 1:
D#||------------------------------------------------------|
A#||------------------------------------------------------|
F#||------------------------------------------------------|
C#||-0-------------------------5--3-----3-----------------|
G#||-0-------------3-----------------5-----5--3--5--3-----|
C#||-0----0--3--5-----5--3--0--------------------------5--|
     .

D#||------------------------------------------------------|
A#||------------------------------------------------------|
F#||------------------------------------------------------|
C#||------------------------5--3-----3----------4'b-------| x3
G#||------------3-----------------5-----5--3--------------|
C#||---0--3--5-----5--3--0--------------------------------|


Guitar 2:
D#||-----------------------------------------------------------0--0--|
A#||-----------------------------------------------------------4--4--|
F#||-----------------------------------------------------------------|
C#||------0---0-----3---3-----3---3h5-----0---0-----3---3------------| x2
G#||------0---0-----3---3-----3---3h5-----0---0-----3---3------------|
C#||--0-0-0-0-0-0-0-3-0-3-0-0-3-0-3h5-0-0-0-0-0-0-0-3-0-3-0-0--------|
      . .   .   . .   .   . .   .     . .   .   . .   .   . .


Guitar 1:
D#||--------------------------|---------------------------|
A#||--------------------------|------------------8--------|
F#||-------------------5------|------------------x--------|
C#||---0-0---0--00-----x------|---0-0---0--00----5--------|
G#||---0-0---0--00-----3------|---0-0---0--00-------------|
C#||---0-0---0--00------------|---0-0---0--00-------------|


D#||--------------------------|---------------------------|
A#||--------------------------|---------------------------|
F#||--------------------------|---------------------------|
C#||---0-0---0--00------------|---0-0---0--00-------------|
G#||---0-0---0--00------------|---0-0---0--00-------------|
C#||---0-0---0--00------------|---0-0---0--00-------------|



Pre-Verse
Guitar 1/2:
D#||--------------------------------------|
A#||--------------------------------------|
F#||--------------------------------------|
C#||--1/88888888888888887777777777777777--|
G#||--1/88888888888888887777777777777777--|
C#||--1/88888888888888887777777777777777--|


D#||-------------------------|---------------------------|
A#||-------------------------|---------------------------|
F#||-------------------------|---------------------------|
C#||--5-55555-----5-5-5------|---3-33333-----2-2-2--2/---|
G#||--5-55555-----5-5-5------|---3-33333-----2-2-2--2/---|
C#||--5-55555-----5-5-5------|---3-33333-----2-2-2--2/---|



Verse
Guirar 1/2:
D#||-----------------------------------------------------|
A#||-----------------------------------------------------|
F#||------10----9-----------10---9-----------10---9------|
C#||-----------------------------------------------------|
G#||-----------------------------------------------------|
C#||--0-0----0----0-0-0-0-0----0---0-0-0-0-0----0---0-0--|
      . .    .    . . . . .    .   . . . . .    .   . .

D#||--------------------------|--------------------------------|
A#||--------------------------|--------------------------------|
F#||--10---9---10-----12------|------10---9-----------10---9---|
C#||--------------------------|--------------------------------|
G#||--------------------------|--------------------------------|
C#||-----0---0----0-0---------|--8-8----8---8-8-8-8-8----8-----|
         .   .    . .            . .    .   . . . . .    .

D#||--------------------------------------------|
A#||--------------------------------------------|
F#||--------------------------------------------|
C#||------------10---9-----10---9---10----------|
G#||--------------------------------------------|
C#||--8-8-8-8-8----8---8-8----8---8-------------|
      . . . . .    .   . .    .   .


Pre-Chorus
Guitar 1:
D#||----------------------------------------------------------------------|
A#||----------------------------------------------------------------------|
F#||-10-0-9-0-10-0-9-0-10-0-9-0-10-0-9-0-10-0-9-0-10-0-9-0-10-0-9-0--*10--|
C#||----------------------------------------------------------------------|
G#||----------------------------------------------------------------------|
C#||----------------------------------------------------------------------|



Chorus
Guitar 1:
D#||---------------------------------------------------|
A#||---------------------------------------------------|
F#||---------------------------------------------------|
C#||--8-8-888-8-8-888--0-7-7-777--12-1212---10---1010--|
G#||--8-8-888-8-8-888--0-7-7-777--12-1212---10---1010--|
C#||--8-8-888-8-8-888--0-7-7-777--12-1212---10---1010--|


D#||-------------------------------------------------|
A#||-------------------------------------------------|
F#||-------------------------------------------------| x2
C#||--7-7-777-7-7-777---00--3-3---00--2-2----3p0-----|
G#||--7-7-777-7-7-777---00--3-3---00--2-2----3p0-----|
C#||--7-7-777-7-7-777---00--3-3---00--2-2----3p0-----|
                        ..        ..


Guitar 2 (listen for when to come in):
D#||--1-----0-----1-----0-----1----0---0-0-0-5-5-3---3-3--|
A#||------------------------------------------------------|
F#||----0-0---0-0---0-0---0-0---0----0--------------------|
C#||------------------------------------------------------|
G#||------------------------------------------------------|
C#||------------------------------------------------------|


D#||--1--0--1----0---1/--3--1--0--1--------|
A#||---------------------------------------|
F#||---------------------------------------|
C#||---------------------------------------|
G#||---------------------------------------|
C#||---------------------------------------|



Pre-Verse
Guitar 1:
D#||---------------------|
A#||---------------------|
F#||---------------------|
C#||-0-----0--0--8--0----|
G#||-0--0--0--0--8--0----|
C#||-0--0-00-00--8--0----|
        . .. ..     .         



Verse:
Guitar 1:
D#||--------------------------------------------|
A#||--------------------------------------------|
F#||--------------------------------------------|
C#||--00-000-0--88-888-8--77-777-777-7-10101010-|
G#||--00-000-0--88-888-8--77-777-777-7-10101010-|
C#||--00-000-0--88-888-8--77-777-777-7-10101010-|


D#||--------------------------------------------|
A#||--------------------------------------------|
F#||--------------------------------------------|
C#||--00-000-0--88-888-8--77-777-777-777-7--0~--|
G#||--00-000-0--88-888-8--77-777-777-777-7--0~--|
C#||--00-000-0--88-888-8--77-777-777-777-7--0~--|



Chorus
Guitar 1:
D#||---------------------------------------------------|
A#||---------------------------------------------------|
F#||---------------------------------------------------|
C#||--8-8-888-8-8-888--0-7-7-777--12-1212---10---1010--|
G#||--8-8-888-8-8-888--0-7-7-777--12-1212---10---1010--|
C#||--8-8-888-8-8-888--0-7-7-777--12-1212---10---1010--|


D#||--------------------------------------------------|
A#||--------------------------------------------------|
F#||--------------------------------------------------| x2
C#||--7-7-777-7-7-777---00--3-3---00--2-2----3p0------|
G#||--7-7-777-7-7-777---00--3-3---00--2-2----3p0------|
C#||--7-7-777-7-7-777---00--3-3---00--2-2----3p0------|
                        ..        ..

Guitar 2:
D#||--1-----0-----1-----0-----1----0---0-0-0-5-5-3---3-3--|
A#||------------------------------------------------------|
F#||----0-0---0-0---0-0---0-0---0----0--------------------|
C#||------------------------------------------------------|
G#||------------------------------------------------------|
C#||------------------------------------------------------|


D#||--1--0--1----0---1/--3--1--0--1--------|
A#||---------------------------------------|
F#||---------------------------------------| x2
C#||---------------------------------------|
G#||---------------------------------------|
C#||---------------------------------------|



Solo
Guitar 2:
D#||-(1/)--12--13--13/15--13--12--12/13----12--13----13/15----13--12--13--|
A#||----------------------------------------------------------------------|
F#||----------------------------------------------------------------------|
C#||----------------------------------------------------------------------|
G#||----------------------------------------------------------------------|
C#||----------------------------------------------------------------------|

      t  t  t   t  t  t   t  t  t   t  t  t
D#||--15-13-12--13-12-----12-------------------------------------------------|
A#||------------------15-----15-13--15-13-12-13---12-13-13/15----13---12-13--|
F#||-------------------------------------------------------------------------|
C#||-------------------------------------------------------------------------|
G#||-------------------------------------------------------------------------|
C#||-------------------------------------------------------------------------|

     t       t     t  t              t t t
D#||-15------13----12-13---x2----|---151312---x16--|--10~--|
A#||-----------------------------|-----------------|-------|
F#||-----------------------------|-----------------|-------|
C#||-----------------------------|-----------------|-------|
G#||-----------------------------|-----------------|-------|
C#||-----------------------------|-----------------|-------|


Guitar 1:
D#||------------------------------|------------------------------------|
A#||------------------------------|------------------------------------|
F#||------------------------------|------------------------------------|
C#||-0----10--7--8----7---0-------|--5--7--8------7777777777777777-----|
G#||-0----10--7--8----7---0---x2--|--5--7--8------7777777777777777-----|
C#||-0----10--7--8----7---0-------|--5--7--8------7777777777777777-----|
                                                  ........                      


Bridge
Guitar 1:
D#||------------|------------|----------------|-------------------|
A#||------------|------------|----------------|-------------------|
F#||------------|------------|----------------|-------------------|
C#||--00---000--|--00---000--|-12\--00---000--|--00---000~---0h1--|
G#||--00---000--|--00---000--|-12\--00---000--|--00---000~---0h1--|
C#||--00---000--|--00---000--|-12\--00---000--|--00---000~---0h1--|
                                                         .   . .

D#||------------|------------|--------|-----------------|-------|
A#||------------|------------|--------|-----------------|-------|
F#||------------|------------|--------|-----------------|-------|
C#||--00---000--|--00---000--|--1/10--|--00---000-------|---0~--|
G#||--00---000--|--00---000--|--1/10--|--00---000---x4--|---0~--|
C#||--00---000--|--00---000--|--1/10--|--00---000-------|---0~--|


Guitar 2:
D#||----------------------------|---------------------------|
A#||----------------------------|---------------------------|
F#||-----------------------x3---|-----------------------7~--|
C#||----------------------------|-----------------------7~--|
G#||--888777555888777-4-5-------|--888777555888777-4----5~--|
C#||----------------------------|---------------------------|



Chorus
Guitar 1:
D#||---------------------------------------------------|
A#||---------------------------------------------------|
F#||---------------------------------------------------|
C#||--8-8-888-8-8-888--0-7-7-777--12-1212---10---1010--|
G#||--8-8-888-8-8-888--0-7-7-777--12-1212---10---1010--|
C#||--8-8-888-8-8-888--0-7-7-777--12-1212---10---1010--|


D#||--------------------------------------------------|
A#||--------------------------------------------------|
F#||--------------------------------------------------| x2
C#||--7-7-777-7-7-777---00--3-3---00--2-2----3p0------|
G#||--7-7-777-7-7-777---00--3-3---00--2-2----3p0------|
C#||--7-7-777-7-7-777---00--3-3---00--2-2----3p0------|
                        ..        ..


Guitar 2:
D#||--1-----0-----1-----0-----1----0---0-0-0-5-5-3---3-3--|
A#||------------------------------------------------------|
F#||----0-0---0-0---0-0---0-0---0----0--------------------|
C#||------------------------------------------------------|
G#||------------------------------------------------------|
C#||------------------------------------------------------|


D#||--1--0--1----0---1/--3--1--0--1--------|
A#||---------------------------------------|
F#||---------------------------------------| x2
C#||---------------------------------------|
G#||---------------------------------------|
C#||---------------------------------------|


Guitar 1:
D#||---------------------------------------|
A#||---------------------------------------|
F#||---------------------------------------|
C#||--0--0---3--3---0--0---2--2----3p0-----|
G#||--0--0---3--3---0--0---2--2----3p0-----|
C#||--0--0---3--3---0--0---2--2----3p0-----|
      .  .          .  .


Outro
Guitar 1/2:
D#||---------------------------------------|-----------------------------8b10------|
A#||---------------------------------------|---------------------------------------|
F#||-----8---------------------------------|-----8---------------------------------|
C#||--0--x-----------------------3'--------|--0--x---------------------------------|
G#||--0--6--6--------3---------------------|--0--6--6--------3---------------------|
C#||--0-----6--3--5-----5--3--5------------|--0-----6--3--5-----5--3--5------------|


D#||---------------------------------------|---------------------------------------|
A#||---------------------------------------|---------------------------------------|
F#||-----8-----------------------10--------|-----8---------------------------------|
C#||--0--x-----------------------x---------|--0--x-----------------------19\-------|
G#||--0--6--6--------3-----------8---------|--0--6--6--------3-----------19\-------|
C#||--0-----6--3--5-----5--3--5------------|--0-----6--3--5-----5--3--5--19\-------|


D#||---------------------------------------|---------------------------------------|
A#||---------------------------------------|-----------------------------8---------|
F#||-----8-----------------------5---------|-----8-----------------------10b12-----|
C#||--0--x-----------------------x---------|--0--x---------------------------------|
G#||--0--6--6--------3-----------3---------|--0--6--6--------3---------------------|
C#||--0-----6--3--5-----5--3--5------------|--0-----6--3--5-----5--3--5------------|


D#||---------------------------------------|-----------------------------8b10------|
A#||---------------------------------------|---------------------------------------|
F#||-----8---------------------------------|-----8---------------------------------|
C#||--0--x-----------------------3'--------|--0--x---------------------------------|
G#||--0--6--6--------3---------------------|--0--6--6--------3---------------------|
C#||--0-----6--3--5-----5--3--5------------|--0-----6--3--5-----5--3--5------------|


D#||---------------------------------------|
A#||---------------------------------------|
F#||-----8---------------------------------|
C#||--0--x--------------0------------------|
G#||--0--6--6-----------0------------------|
C#||--0-----6--3--5--3--0------------------|





Tablature Legend
----------------
 h   - hammer-on
 p   - pull-off
 b   - bend
 r   - release bend
 *   - pinch harmonic
 '   - natural harmonic
 t   - tremlo pick
 x   - mute note
 .   - palm mute
 /   - slide down
 \   - slide up
Добавлено: 05.06.2012
Другие материалы по этой песне:
  • Аккорды и текст

Страница создана 05.06.2012
http://primanota.ru/before-their-eyes/the-things-we-stood-against-chords.htm
Привет, Гость.
Предлагаем пройти революционный курс по гитаре.
Подарок от PrimaNota.Ru, забирай!