PrimaNota.ru - самый крупный в мире бесплатный архив песенных текстов, аккордов, табулатур и нот


Before Their Eyes - The Journey Down South - таба, видео

Регистрация Запомнить меня
Войти через:  Facebook Google Twitter Vk Yandex Mail.ru

Before Their Eyes - The Journey Down South - таба, видео

Печатать
Просмотров: 159
----------------------------------------------------------------------------
                 A Journey Down South - Before Their Eyes
----------------------------------------------------------------------------
Tabbed by: michael
email:onemouthband@aol.com
Tuning:Drop D

i dont know the little lead riff at the begining

intro x4
e|-------------------------------------------------------------------------|
B|-------------------------------------------------------------------------|
G|----------------------------------------------------------7-77-----------|
D|------------------------------------------------2-22-0-00-x-xx-5-55------|
A|-0-3p0-3p0-00-3p0-x//-----00-3p0-3p0-00-3p0-3p0-2-22-0-00-5-55-5-55------|
D|------------------x//-----00-3p0-3p0-00-3p0-3p0-2-22-0-00------5-55------|

intro lead
sone solo riff then strum these chords 3x total
e|-------------------------------------------------------------------------|
B|-------------------------------------------------------------------------|
G|--7-(x16)----5-(x8)---12-(x8)--------------------------------------------|
D|--x----------x--------x--------------------------------------------------|
A|--5----------3--------10-------------------------------------------------|
D|-------------------------------------------------------------------------|

verse part 1 x2(except for the 4 chords at begining)
e|-------------------------------------------------------------------------|
B|-------------------------------------------------------------------------|
G|-------------------------------------------------------------------------|
D|-------------------------------------------------------------------------|
A|-2-3-5-7/--00-000-000-0--000-000-000--00-000-000-0--000-000--------------|
D|-2-3-5-7/--00-000-000-0--000-000-000--00-000-000-0--000-000-3*-----------|
             xx xxx xxx x  xxx xxx xxx  xx xxx xxx x  xxx xxx

verse part 2
e|-------------------------------------------------------------------------|
B|-------------------------------------------------------------------------|
G|-------------------------------------------------------------------------|
D|-------------------------------------------------------------------------|
A|-00-000-000-0-0-0-0-00-000-00-000-000--000-000-00-0-0-0-0-000-000-00-----|
D|-00-000-000-0-0-0-0-00-000-00-000-000--000-000-00-0-0-0-0-000-000-00-----|
   xx xxx xxx         xx xxx             xxx xxx            xxx xxx

e|-------------------------------------------------------------------------|
B|-------------------------------------------------------------------------|
G|-------------------------------------------------------------------------|
D|-------------------------------------------------------------------------|
A|-0-0-0-0-----------------------------------------------------------------|
D|-0-0-0-0-----------------------------------------------------------------|


for the chorus you just go thru the rythm part of the intro once then

e|-------------------------------------------------------------------------|
B|-------------------------------------------------------------------------|
G|-------------------------------------------------------------------------|
D|---------------------------------------------2-3-------------------------|
A|-000-000-----000-000-----000-000-----000-000-2-3-------------------------|
D|-000-000-3*--000-000-3*--000-000-3*--000-000-2-3-------------------------|
   xxx xxx     xxx xxx     xxx xxx     xxx xxx

then do all that again
except for the 2nd and 3rd barr chords


e|-------------------------------------------------------------------------|
B|-------------------------------------------------------------------------|
G|-------------------------------------------------------------------------|
D|-0~---------2---3-0------------------------------------------------------|
A|-0~---------2---3-0------------------------------------------------------|
D|-0~-0-5v-3v-2---3-0------------------------------------------------------|

i dont rele feel like doing the rest...the next part is kinda hard and im not too good 
this...but i think this is right..anyways...enjoy and if you wanna add on to it go 
if you know the rest of the song then email it to me or something.

God Bless

oh by the way go to www.myspace.com/engravedinthewake and check out my band...we are 
(just a bit more screaming)...

| /  slide up
| \  slide down
| h  hammer-on
| p  pull-off
| ~  vibrato
| *  Pinched harmonic
| x  Mute note
| x//  Pick Scrape
============================================================================
Добавлено: 04.05.2012
Другие материалы по этой песне:
  • Аккорды и текст

Страница создана 04.05.2012
http://primanota.ru/before-their-eyes/the-journey-down-south-chords.htm
Привет, Гость.
Предлагаем пройти революционный курс по гитаре.
Подарок от PrimaNota.Ru, забирай!