PrimaNota.ru - самый крупный в мире бесплатный архив песенных текстов, аккордов, табулатур и нот


Before Their Eyes - Nighttime Is Our Time - таба, видео

Регистрация Запомнить меня
Войти через:  Facebook Google Twitter Vk Yandex Mail.ru

Before Their Eyes - Nighttime Is Our Time - таба, видео

Печатать
Просмотров: 238
Уроки эстрадного вокала в Санкт-Петербурге
-------------------------------------------------------------------------------
                             Nighttime Is Our Time - Before Their Eyes
-------------------------------------------------------------------------------
Tabbed by: jameskr3w
Email: baker3bueno@hotmail.com

Tuning: Drop C

D|------------------------------------|
A|------------------------------------|
F|-------------12121212121212---------|X2
C|---55555555--12121212121212---------|
G|---55555555--10101010101010---------|
C|---55555555-------------------------|


D|------------------------------------|
A|------------------------------------|
F|----------------------12----8-------|X2
C|--000--000--000--0-0--12-0--8-------|
G|--000--000--000--0-0--10-0-10-------|
C|--000--000--000--0-0-----0----------|


D|------------------------------------|
A|------------------------------------|
F|-------------12121212121212---------|X2
C|---55555555--12121212121212---------|
G|---55555555--10101010101010---------|
C|---55555555-------------------------|


D|------------------------------------|
A|------------------------------------|
F|------------------------------------|X2
C|--000--000--000--0-0----------------|
G|--000--000--000--0-0----------------|
C|--000--000--000--0-0----------------|


D|------------------------------------|
A|------------------------------------|
F|------------------------------------|X4
C|---0-0-5--0-3--0-2--0-0--0-000------|
G|---0-0-5--0-3--0-2--0-0--0-000------|
C|---0-0-5--0-3--0-2--0-0--0-000------|

D|-----------------------------------------------------------|
A|---11p10---11p10---13p10---11p10----13p11p10h11------------|
F|--------10------10------10-------10------------------------|X2
C|-----------------------------------------------------------|
G|-----------------------------------------------------------|
C|-----------------------------------------------------------|

D|-----------------------------------------------------------|
A|---11p10---11p10---13p11p10h11-15~-------------------------|
F|--------10------10-----------------------------------------|
C|-----------------------------------------------------------|
G|-----------------------------------------------------------|
C|-----------------------------------------------------------|


| /  slide up
| \  slide down
| h  hammer-on
| p  pull-off
| ~  vibrato
| +  harmonic
| x  Mute note
===============================================================================
Добавлено: 19.03.2012
Другие материалы по этой песне:

Страница создана 19.03.2012
http://primanota.ru/before-their-eyes/nighttime-is-our-time-chords.htm
Привет, Гость.
Предлагаем пройти революционный курс по гитаре.
Подарок от PrimaNota.Ru, забирай!