PrimaNota.ru - самый крупный в мире бесплатный архив песенных текстов, аккордов, табулатур и нот


Before Their Eyes - New Kids In Town - таба, видео

Регистрация Запомнить меня
Войти через:  Facebook Google Twitter Vk Yandex Mail.ru

Before Their Eyes - New Kids In Town - таба, видео

Печатать
Просмотров: 198
Okay this is just a try
I'll try to arrange this later ;)
suggestions are welcome

1st guitar
E------------------------------------------------------------------------|
B------------------------------------------------------------------------|
G------------------------------------------------------------------------|
D------------------------------------------------------------------------|
A---6-9-6-11--x---11-11-11-9--x-9--9-9-2--x-2--2-2-4--x-4--4-------------| X2
E---4-7-4-9---x---9--9--9--7--x-7--7-7-0--x-0--0-0-2--x-2--2-------------|


2nd guitar (comes in after the first intro of G1)

E---4-4-4-4-4-2---------------19-----------4-2---------------------------|
B---------------4-2-2---2-0-2----4---4-2-4-------------------------------|
G------------------------------------------------------------------------|
D------------------------------------------------------------------------|
A------------------------------------------------------------------------|
E------------------------------------------------------------------------|
Добавлено: 15.04.2012
Другие материалы по этой песне:
  • Аккорды и текст

Страница создана 04.04.2012
http://primanota.ru/before-their-eyes/new-kids-in-town-chords.htm
Привет, Гость.
Предлагаем пройти революционный курс по гитаре.
Подарок от PrimaNota.Ru, забирай!