PrimaNota.ru - самый крупный в мире бесплатный архив песенных текстов, аккордов, табулатур и нот


Before Their Eyes - My Match Your Fire - таба, видео

Регистрация Запомнить меня
Войти через:  Facebook Google Twitter Vk Yandex Mail.ru

Before Their Eyes - My Match Your Fire - таба, видео

Печатать
Просмотров: 148
Tabbed by: Joshua Garcia (halofreak731@aol.com)

Tabs for the song: My Match, Your Fire by Before Their Eyes
Please rate and let me know if you have any corrections. Thank you.


It's a little funny. I'm positive I'm not the only one, but I only tab songs for
Ultimate-Guitar.com, yet I find my tabs on every other tablature site. Not sure how but it's kinda
flattering. Only problem is some of them aren't updated. Oh well, for the record, if you find this
tab on another site then go to http://profile.ultimate-guitar.com/Joshua+Garcia/, I have plenty
more tabs that get updated often.


Tuning: Standard (E A D G B E)


Intro
Guitar 2:
E||--------0---------0---------0---------0---|
B||--------4---------4---------4---------4---|
G||------------------------------------------| x5
D||------------------------------------------|
A||--4--4------4--4------2--2----------------|
E||--------------------------------2--2------|


Guitar 1:
E||------------------------------------------------------------------|
B||------------------------------------------------------------------|
G||------------------------------------------------------------------| x2
D||------------------------------------------------------------------|
A||-4-4-4-4-4-4-4-4-4-4-4-4-4-4-4-4-2-2-2-2-2-2-2-2------------------|
E||-------------------------------------------------2-2-2-2-2-2-2-2--|
    . . . . . . . . . . . . . . . . . . . . . . . . . . . . . . . .


Guitar 2:
E||-----|
B||-----|
G||-----|
D||-----|
A||--4--|
E||-----|



Verse
Guitar 1:
E||----------------------------------|
B||----------------------------------|
G||----------------------------------| x2
D||-4-4-4-7-7-7-7-2-2-2-2-2-2-2-2-2--|
A||-4-4-4-7-7-7-7-2-2-2-2-2-2-2-2-2--|
E||-2-2-2-5-5-5-5-0-0-0-0-0-0-0-0-0--|


Guitar 2:
E||----------------------------------|
B||----------------------------------|
G||-6-6-6-9-9-9-9-4-4-4-4-4-4-4-4-4--| x2
D||-x-x-x-x-x-x-x-x-x-x-x-x-x-x-x-x--|
A||-4-4-4-7-7-7-7-2-2-2-2-2-2-2-2-2--|
E||----------------------------------|



Pre-Chorus
Guitar 1:
E||----------------------------------------|-----------------------------------------|
B||----------------------------------------|-----------------------------------------|
G||----------------------------------------|-----------------------------------------|
D||----------------------------------------|-----------------------------------------|
A||----------------------------------------|-----------------------------------------|
E||-9-9-9-\-5-5-5-/-7-7-7-7-7-7-7-\-2-2-2--|--9-9-9-\-5-5-5-/-7-7-7-7-7-7-7-\-0-0-0--|


Guitar 1/2:
E||----------------------------------------|-----------------------------------------|
B||----------------------------------------|-----------------------------------------|
G||----------------------------------------|-----------------------------------------|
D||----------------------------------------|-----------------------------------------|
A||----------------------------------------|-----------------------------------------|
E||-9-9-9-\-5-5-5-/-7-7-7-7-7-7-7-\-2-2-2--|--9-9-9-\-5-5-5-/-7-7-7-7-7-7-7-\-0-0-0--|



Chorus
Guitar 1:
E||-----------------------------------|---------------------------------|
B||-----------------------------------|---------------------------------|
G||--6-6-6---------2---2-2-2-2-2-2-2--|--6-6-6---------2----------------|
D||--6-6-6-2-2-----2---2-2-2-2-2-2-2--|--6-6-6-2-2-----2--4-4-----4-4---|
A||--4-4-4-2-2-----0---0-0-0-0-0-0-0--|--4-4-4-2-2-----0--4-4-----4-4---|
E||--------0-0------------------------|--------0-0--------2-2-----2-2---|


E||-----------------------------------|------------------------------------|
B||-----------------------------------|------------------------------------|
G||--6-6-6---------2---2-2-2-2-2-2-2--|------------------------------------|
D||--6-6-6-2-2-----2---2-2-2-2-2-2-2--|-2-2-2-2-2-2-2-2-6-6-6-6-6-6-6-6-7--|
A||--4-4-4-2-2-----0---0-0-0-0-0-0-0--|-2-2-2-2-2-2-2-2-6-6-6-6-6-6-6-6-7--|
E||--------0-0------------------------|-0-0-0-0-0-0-0-0-4-4-4-4-4-4-4-4-5--|


Guitar 2:
E||--12------------------------------------------|--12-----------------------------------------|
B||-----12--------------------------12---14-12---|-----12--------------------------------------|
G||--------9--13-11-9--13---11---9---------------|--------9--13-11-9--13---11---8--9---9-8-9---| x2
D||----------------------------------------------|---------------------------------------------|
A||----------------------------------------------|---------------------------------------------|
E||----------------------------------------------|---------------------------------------------|


Guitar 1:
E||-----|
B||-----|
G||-----|
D||--4--|
A||--4--|
E||--2--|



Verse
Guitar 2:
E||--------0---------0---------0---------0---|
B||--------4---------4---------4---------4---|
G||------------------------------------------| x2
D||------------------------------------------|
A||--4--4------4--4------2--2----------------|
E||--------------------------------2--2------|


Guitar 1:
E||------------------------------------------------------------------|
B||------------------------------------------------------------------|
G||------------------------------------------------------------------| x2
D||------------------------------------------------------------------|
A||-4-4-4-4-4-4-4-4-4-4-4-4-4-4-4-4-2-2-2-2-2-2-2-2------------------|
E||-------------------------------------------------2-2-2-2-2-2-2-2--|
    . . . . . . . . . . . . . . . . . . . . . . . . . . . . . . . .



Pre-Chorus
Guitar 1:
E||----------------------------------------|-----------------------------------------|
B||----------------------------------------|-----------------------------------------|
G||----------------------------------------|-----------------------------------------|
D||----------------------------------------|-----------------------------------------|
A||----------------------------------------|-----------------------------------------|
E||-9-9-9-\-5-5-5-/-7-7-7-7-7-7-7-\-2-2-2--|--9-9-9-\-5-5-5-/-7-7-7-7-7-7-7-\-0-0-0--|



Chorus
Guitar 1:
E||-----------------------------------|---------------------------------|
B||-----------------------------------|---------------------------------|
G||--6-6-6---------2---2-2-2-2-2-2-2--|--6-6-6---------2----------------|
D||--6-6-6-2-2-----2---2-2-2-2-2-2-2--|--6-6-6-2-2-----2--4-4-----4-4---|
A||--4-4-4-2-2-----0---0-0-0-0-0-0-0--|--4-4-4-2-2-----0--4-4-----4-4---|
E||--------0-0------------------------|--------0-0--------2-2-----2-2---|


E||-----------------------------------|------------------------------------|
B||-----------------------------------|------------------------------------|
G||--6-6-6---------2---2-2-2-2-2-2-2--|------------------------------------|
D||--6-6-6-2-2-----2---2-2-2-2-2-2-2--|-2-2-2-2-2-2-2-2-6-6-6-6-6-6-6-6-7--|
A||--4-4-4-2-2-----0---0-0-0-0-0-0-0--|-2-2-2-2-2-2-2-2-6-6-6-6-6-6-6-6-7--|
E||--------0-0------------------------|-0-0-0-0-0-0-0-0-4-4-4-4-4-4-4-4-5--|


Guitar 2:
E||--12------------------------------------------|--12-----------------------------------------|
B||-----12--------------------------12---14-12---|-----12--------------------------------------|
G||--------9--13-11-9--13---11---9---------------|--------9--13-11-9--13---11---8--9---9-8-9---| x2
D||----------------------------------------------|---------------------------------------------|
A||----------------------------------------------|---------------------------------------------|
E||----------------------------------------------|---------------------------------------------|


Guitar 1:
E||-----|
B||-----|
G||-----|
D||--4--|
A||--4--|
E||--2--|



Bridge
Guitar 1:
E||-----------------------------|----------------------------|
B||-----------------------------|----------------------------|
G||-----------------------------|----------------------------| x2
D||-----------------------------|----------------------------|
A||-----------------------------|----------------------------|
E||-9-9-----5-9-9-----2---2--0--|-9-9-----5-9-9-----2---2b3--|


Guitar 2:
E||------------------------------------------------|
B||-(12)b14--r12-b14-------------------------------|
G||------------------------------------------------|
D||--------------------------------------------9b--|
A||--------------------------------999911111111----|
E||--------------------999912121212----------------|



Solo
Guitar 2:
E||-----------------------------------------|-----------------------------------------------|
B||-------------------------------12--------|-------------------------12--10-9-9---/18---\--|
G||-----------------9h11p9--11b13------9-9--|-----------------9h11p9------------------------|
D||--11b--11b--11b--------------------------|--11b--11b--11b--------------------------------|
A||-----------------------------------------|-----------------------------------------------|
E||-----------------------------------------|-----------------------------------------------|


E||----------9-----9-----9-----------------------------|
B||--9h12p9--12b14-12b14-12b14---17b19r17----14p12h14--|
G||----------------------------------------------------|
D||----------------------------------------------------|
A||----------------------------------------------------|
E||----------------------------------------------------|


E||--1212-14-12----16-12----14-12----16-12----14-12-----|
B||-------------14-------14-------14-------14-------14--|
G||-----------------------------------------------------|
D||-----------------------------------------------------|
A||-----------------------------------------------------|
E||-----------------------------------------------------|

     t t t t t t t t t t t t
E||--121212141414161616191919-19b21---|
B||-----------------------------------|
G||-----------------------------------|
D||-----------------------------------|
A||-----------------------------------|
E||-----------------------------------|


Guitar 1:
E||--------------------------------|------------------------------------|
B||--------------------------------|------------------------------------|
G||--------------------------------|------------------------------------|
D||--------------------------------|------------------------------------|
A||-11-11----7--11-11----4---4--2--|-11-11----7--11-11----4---4--6-6-6--|
E||-9--9-----5--9--9-----2---2--0--|-9--9-----5--9--9-----2---2--4-4-4--|


E||--------------------------------|-------------------------------------|
B||--------------------------------|-------------------------------------|
G||--------------------------------|-------------------------------------|
D||--------------------------------|-------------------------------------|
A||-11-11----7--11-11----4---4--2--|-11-11----7--11-11----4-4-4-4-6-6-6--|
E||-9--9-----5--9--9-----2---2--0--|-9--9-----5--9--9-----2-2-2-2-4-4-4--|



Chorus
Guitar 1:
E||-----------------------------------|---------------------------------|
B||-----------------------------------|---------------------------------|
G||--6-6-6---------2---2-2-2-2-2-2-2--|--6-6-6---------2----------------| x2
D||--6-6-6-2-2-----2---2-2-2-2-2-2-2--|--6-6-6-2-2-----2--4-4-----4-4---|
A||--4-4-4-2-2-----0---0-0-0-0-0-0-0--|--4-4-4-2-2-----0--4-4-----4-4---|
E||--------0-0------------------------|--------0-0--------2-2-----2-2---|


E||-----------------------------------|---------------------------------|
B||-----------------------------------|---------------------------------|
G||--6-6-6---------2---2-2-2-2-2-2-2--|--6-6-6---------2----------------|
D||--6-6-6-2-2-----2---2-2-2-2-2-2-2--|--6-6-6-2-2-2-2-2--4-4-4-4-4-4---|
A||--4-4-4-2-2-----0---0-0-0-0-0-0-0--|--4-4-4-2-2-2-2-0--4-4-4-4-4-4---|
E||--------0-0------------------------|--------0-0-0-0----2-2-2-2-2-2---|


E||-----------------------------------|------------------------------------|
B||-----------------------------------|------------------------------------|
G||--6-6-6---------2---2-2-2-2-2-2-2--|------------------------------------|
D||--6-6-6-2-2-----2---2-2-2-2-2-2-2--|-2-2-2-2-2-2-2-2-6-6-6-6-6-6-6-6-7--|
A||--4-4-4-2-2-----0---0-0-0-0-0-0-0--|-2-2-2-2-2-2-2-2-6-6-6-6-6-6-6-6-7--|
E||--------0-0------------------------|-0-0-0-0-0-0-0-0-4-4-4-4-4-4-4-4-5--|


Guitar 2:
E||--12------------------------------------------|--12-----------------------------------------|
B||-----12--------------------------12---14-12---|-----12--------------------------------------|
G||--------9--13-11-9--13---11---9---------------|--------9--13-11-9--13---11---8--9---9-8-9---| x4
D||----------------------------------------------|---------------------------------------------|
A||----------------------------------------------|---------------------------------------------|
E||----------------------------------------------|---------------------------------------------|



Outro
Guitar 2:
E||--0--------2--------0--------4--------0--------2--------0--------4h5---------|
B||-----0--------0--------0--------0--------0--------0--------0---------(0)-----|
G||-----------------------------------------------------------------------------| x2
D||-------2--------2--------2--------2--------2--------2--------2----------(2)--|
A||-----------------------------------------------------------------------------|
E||-----------------------------------------------------------------------------|




Tablature Legend
----------------
 h   - hammer-on
 p   - pull-off
 b   - bend
 r   - release bend
 *   - pinch harmonic
 '   - natural harmonic
 x   - mute note
 .   - palm mute
 /   - slide down
 \   - slide up
Добавлено: 17.03.2012
Другие материалы по этой песне:
  • Аккорды и текст

Страница создана 17.03.2012
http://primanota.ru/before-their-eyes/my-match-your-fire-chords.htm
Привет, Гость.
Предлагаем пройти революционный курс по гитаре.
Подарок от PrimaNota.Ru, забирай!