PrimaNota.ru - самый крупный в мире бесплатный архив песенных текстов, аккордов, табулатур и нот


Before Their Eyes - Crawling Towards Forgiveness - таба, видео

Регистрация Запомнить меня
Войти через:  Facebook Google Twitter Vk Yandex Mail.ru

Before Their Eyes - Crawling Towards Forgiveness - таба, видео

Печатать
Просмотров: 160
I noticed that this site (along with every other guitar tab site) doesn't have ANY
Their Eyes which is very disappointing. I decided to tab one myself. I've never learned 
tab
ear or tabbed a song myself so bear with me. Unfortunately, all I've got is a bit of the 
and I know there are 2 guitars.

Intro
e|-------------------------------------------------------|
B|-------------------------------------------------------|
G|-----------9/10-1010-1010-----------9/10-1010-1010-----|
D|--0--00-00-x/x---x-x--x-x--0--00-00-x/x---x-x--x-x-----|
A|--0--00-00-7/8---8-8--8-8--0--00-00-7/8---8-8--8-8-----|
D|--0--00-00-----------------0--00-00--------------------|

e|-------------------------------------------------------|
B|-------------------------------------------------------|
G|--9-10-12-10-9-10-9-7-9-7--9-10-12-10-9-10-9-7-9-7-----|
D|-------------------------------------------------------|
A|-------------------------------------------------------|
D|-------------------------------------------------------|

e|-------------------------------------------------------|
B|-------------------------------------------------------|
G|-----------9/12-1212-1212-----------9/12-1212-1212-----|
D|--0--00-00-x/x---x-x--x-x--0--00-00-x/x---x-x--x-x-----|
A|--0--00-00-7/10-1010-1010--0--00-00-7/10-1010-1010-----|
D|--0--00-00-----------------0--00-00--------------------|

e|-------------------------------------------------------|
B|-------------------------------------------------------|
G|-9-10-12-10-9-10-9-7-9-7--9-10-12-10-12-14-12-10-12-10-|
D|-------------------------------------------------------|
A|-------------------------------------------------------|
D|-------------------------------------------------------|

Pre-verse
e|----------0-------------------------------|
B|----------0-----------------------13------| harmonics are wrong...
G|----------0----11*----------------15*fb---|   but works for me.
D|--0~--------------------------------------|
A|--0~--------------------------0-----------|
D|--0~--------------------------0-----------|
                                .
Verse X2
e|---------------------------------------------------------------------|
B|---------------------------------------------------------------------|
G|---------------------------------------------------------------------|
D|-0--------2-2-2h3--0--------3-2-2h3-3--------5-3-2h3--2------------2-|
A|-0-000-00----------0-000-00---------3-333-33----------2-222-22-3-2---|
D|-0-000-00----------0-000-00---------3-333-33----------2-222-22-------|
     ... ..            ...              ... ..            ... ..

  end verse on...   transition
D|---0~~~~--------|----7-7-7--|
A|---0~~~~--------|----7-7-7--|
D|---0~~~~--------|----7-7-7--|

Chorus
e|-------------------------------------------------------|
B|-------------------------------------------------------|
G|-----------9/10-1010-1010-----------9/10-1010-1010-----|
D|--0--00-00-x/x---x-x--x-x--0--00-00-x/x---x-x--x-x-----|
A|--0--00-00-7/8---8-8--8-8--0--00-00-7/8---8-8--8-8-----|
D|--0--00-00-----------------0--00-00--------------------|

don't know next part yet..

e|-------------------------------------------------------|
B|-------------------------------------------------------|
G|-----------9/12-1212-1212-----------9/10-1010-1010-----|
D|--0--00-00-x/x---x-x--x-x--0--00-00-x/-x--x-x--x-x-----|
A|--0--00-00-7/10-1010-1010--0--00-00-7/-8--8-8--8-8-----|
D|--0--00-00-----------------0--00-00--------------------|

...

D|---0~~~~~~~~~~~~~~~~~~--|
A|---0~~~~~~~~~~~~~~~~~~--|
D|---0~~~~~~~~~~~~~~~~~~--|


I know it's wrong but it's a start. Maybe someone can work off of it?

http://profile.myspace.com/index.cfm?fuseaction=user.viewprofile&friendID=1977157
Добавлено: 14.03.2012
Другие материалы по этой песне:

Страница создана 14.03.2012
http://primanota.ru/before-their-eyes/crawling-towards-forgiveness-chords.htm
Привет, Гость.
Предлагаем пройти революционный курс по гитаре.
Подарок от PrimaNota.Ru, забирай!