PrimaNota.ru - самый крупный в мире бесплатный архив песенных текстов, аккордов, табулатур и нот


Before Their Eyes - Close Your Eyes Its Okay To Rest Now - текст песни, таба, видео

Регистрация Запомнить меня
Войти через:  Facebook Google Twitter Vk Yandex Mail.ru

Before Their Eyes - Close Your Eyes Its Okay To Rest Now - текст песни, таба, видео

Печатать
Просмотров: 212
This tab it's for someone that ask for tab it and I do it xD, well
it's a good song to, and I have it in mind to do it, I think it's
95% accurrate,i have doubts on the interlude, so please help me.
any doubt or thxgaving or corrections, just let me know


Drop C# Tunning


Intro


Gtr.1 
D#|--------------------------------------------------|   
A#|--------------------------------------------------|   
F#|--------------------------------------------------|   not 100% sure
C#|---0-5-5h7p5-0-7-7h8p7-0-8-8h10p8-0-10-10h12p10---|     x2
G#|---0-5-5h7p5-0-7-7h8p7-0-8-8h10p8-0-10-10h12p10---|   
C#|--------------------------------------------------|


Gtr.1&Gtr.2
D#|--------------------------------------------------|   
A#|--------------------------------------------------|   
F#|--------------------------------------------------|   
C#|---0-5-5h7-0-7-7h8-0-8-8h10-0-10-10h12------------| 
G#|---0-5-5h7-0-7-7h8-0-8-8h10-0-10-10h12------------|   
C#|--------------------------------------------------|

Gtr.1&Gtr.2
D#|--------------------------------------------------|   
A#|--------------------------------------------------|   
F#|------------------------------11111111111111------|   
C#|---0-5-5h7-0-7-7h8-0-8-8h10-0-11111111111111------| 
G#|---0-5-5h7-0-7-7h8-0-8-8h10-0-11111111111111------|   
C#|--------------------------------[Elevens]---------|
                                 

Verse

Gtr.1&Gtr.2
D#|---------------------------------------------------------|
A#|---------------------------------------------------------|
F#|---------------------------------------------------------|
C#|---0-00-0-00-0-00-0--------------------------------------|
G#|---0-00-0-00-0-00-0---------0-----0------0---------------|
C#|---0-00-0-00-0-00-0-0-8p5p0-0-8p5-0-10p8-0-8p5-10-8-5h8--|
        ..   ..   ..
Gtr.1&Gtr.2
D#|--------------------------------------------|
A#|--------------------------------------------|  
F#|--------------------------------------------|   
C#|--------------------------------------------| 
G#|----0-----0------0----------55/10-----------|   
C#|----0-8p5-0-10p8-0-8p5-10-8-55/10-----------|

Gtr.1&Gtr.2
D#|-------------------------------------------------------------------------------|
A#|-------------------------------------------------------------------------------|
F#|-------------------------------------------------------------------------------|
C#|-------------------------------------------------------------------------------|
G#|----0-00000-00-8/10-00000-0-8p5-10-8-5h8-0-0000-00-8/10-00000-0-8p5-0-5/101010-|
C#|----0-00000-00-8/10-00000-0-8p5-10-8-5h8-0-0000-00-8/10-00000-0-8p5-0-5/101010-|
         ..... ..      .....                  .... ..      .....

Chorus

Gtr.1&Gtr.2
D#|-------------------------------------------------------------------|
A#|-------------------------------------------------------------------|
F#|-------------------------------------------------------------------|
C#|-------------------------------------------------------------------| 
G#|--000000000000/8888h10p0-7777h8p0-000000000000/8888h10p0-7777/10v--|   
C#|--000000000000/8888h10p0-7777h8p0-000000000000/8888h10p0-7777/10v--|

Gtr.1&Gtr.2
D#|--------------------------------------------------------------------|
A#|--------------------------------------------------------------------|
F#|--------------------------------------------------------------------|
C#|------3p2----------3p2---------(0)-3p0-2p0-5p0-2h3p2----------------| x2
G#|--0-00---3p(2)-0-00---3p(2)-00-(0)------------------3p2-------------|   
C#|--0-00---------0-00---------00--------------------------------------|
       ..           ..         ..

Interlude 1

Gtr.1&Gtr.2
D#|----------------------------------------------------------------------|
A#|------------555555555555--5555555555--5555555555--5555555555----------|
F#|------------888888888888--8888888888--8888888888--8888888888----------|
C#|--0-let---------------------------------------------------------------|
G#|--0-it----00------------00----------00----------00-----------10\-00---|
C#|--0-ring--00------------00----------00----------00-----------10\-00---|
             ..            ..          ..          ..               ..

Gtr.1&
D#|--------------------------------------------------------|
A#|----555555555555--5555555555--5555555555--5555555555----|
F#|----888888888888--8888888888--8888888888--8888888888----|
C#|--------------------------------------------------------|
G#|--00------------00----------00----------00--------------|
C#|--00------------00----------00----------00--------------|
     ..            ..          ..          ..
Gtr.2
D#|----------------------------------------------------------------|
A#|----555555555555--5555555555--5555555555--14141414141414141414--|
F#|----888888888888--8888888888--8888888888--17171717171717171717--|
C#|----------------------------------------------------------------|
G#|--00------------00----------00----------00----------------------|
C#|--00------------00----------00----------00----------------------|
     ..            ..          ..          ..

Chorus

Gtr.1&Gtr.2
D#|-------------------------------------------------------------------|
A#|-------------------------------------------------------------------|
F#|-------------------------------------------------------------------|
C#|-------------------------------------------------------------------| 
G#|--000000000000/8888h10p0-7777h8p0-000000000000/8888h10p0-7777/10v--|   
C#|--000000000000/8888h10p0-7777h8p0-000000000000/8888h10p0-7777/10v--|

Gtr.1&Gtr.2
D#|--------------------------------------------------------------------|
A#|--------------------------------------------------------------------|
F#|--------------------------------------------------------------------|
C#|------3p2----------3p2---------(0)-3p0-2p0-5p0-2h3p2----------------| x2
G#|--0-00---3p(2)-0-00---3p(2)-00-(0)------------------3p2-------------|   
C#|--0-00---------0-00---------00--------------------------------------|
       ..           ..         ..

Solo

Gtr.1&Gtr.2
D#|----------------|
A#|----------------|
F#|----------------|
C#|--0----0--let---| 
G#|--0----0--it----|   
C#|--0---00--ring--|
                 

Clean Gtr.1
D#|-------5-----------5----------5-------|
A#|-----6---6-------6---6------6---6-----|
F#|---7-------7---7-------7--7-------7---|  
C#|-7-----------7----------------------7-|             i'm not 100% sure
G#|--------------------------------------|  x4         of this
C#|--------------------------------------|

Clean Gtr.2
D#|------------------------|
A#|------8---------8-------|
F#|---10---10---10---10----|
C#|-8---------8------------|           i'm not 100% sure of this
G#|------------------------| x18
C#|------------------------|

Chorus

Gtr.1&Gtr.2
D#|-------------------------------------------------------------------|
A#|-------------------------------------------------------------------|
F#|-------------------------------------------------------------------|
C#|-------------------------------------------------------------------| 
G#|--000000000000/8888h10p0-7777h8p0-000000000000/8888h10p0-7777/10v--|   
C#|--000000000000/8888h10p0-7777h8p0-000000000000/8888h10p0-7777/10v--|

Gtr.1&Gtr.2
D#|--------------------------------------------------------------------|
A#|--------------------------------------------------------------------|
F#|--------------------------------------------------------------------|
C#|------3p2----------3p2---------(0)-3p0-2p0-5p0-2h3p2----------------| x2
G#|--0-00---3p(2)-0-00---3p(2)-00-(0)------------------3p2-------------|   
C#|--0-00---------0-00---------00--------------------------------------|


Outro

Gtr.1&Gtr.2
D#|-----------------------------------------------------------------|
A#|---5555555555----5555555555----5555555555----5555555555-let------|
F#|---8888888888----8888888888----8888888888----8888888888--it------|
C#|---------------------------------------------------------ring----|
G#|--0-----------000-----------000-----------000--------------------|
C#|--0-----------000-----------000-----------000--------------------|
                 ..            ..            ..

Gtr.1&Gtr.2
D#|-------------------------------------------|
A#|---5555--5555555--5555--55555-5--let-------|
F#|---8888--8888888--8888--88888-8--it--------|
C#|---------------------------------ring------|
G#|--0----0--------0-----0------0-------------|
C#|--0----0--------0-----0------0-------------|
     .    .        .     .      .     

I don't knwo why the dots of pm move from it's original position when I
preview the tab, but you'll figure out the palm muted ;)
it's not hard, any suggestion email me
cya :)
Добавлено: 27.03.2012
Другие материалы по этой песне:
  • Аккорды и текст

Страница создана 24.03.2012
http://primanota.ru/before-their-eyes/close-your-eyes-its-okay-to-rest-now-chords.htm
Привет, Гость.
Предлагаем пройти революционный курс по гитаре.
Подарок от PrimaNota.Ru, забирай!