PrimaNota.ru - самый крупный в мире бесплатный архив песенных текстов, аккордов, табулатур и нот


Before Their Eyes - City In A Snow Globe - текст песни, таба, видео

Регистрация Запомнить меня
Войти через:  Facebook Google Twitter Vk Yandex Mail.ru

Before Their Eyes - City In A Snow Globe - текст песни, таба, видео

Печатать
Просмотров: 333
Уроки эстрадного вокала в Санкт-Петербурге
0:00-0:53
e |-----------------------------------------------------|
B |-----------------------------------------------------|
G |---------1-4-1-1---1-4-1-1---1-4-1-4-1-4-1-4-1-------|
D |------2----------2---------2-------------------2-----|
A |---4-------------------------------------------------|
E |-----------------------------------------------------|

e |-----------------------------------------------------|
B |-----------------------------------------------------|
G |------1---1-1-1--1---1-1-1--1---1-1--1-1--1-1--1-1---|
D |--------2----------2----------2----------------------|
A |---0-------------------------------------------------|
E |-----------------------------------------------------|

B |-----------------------------------------------------|
G |------1-1-4-1-1---1-4-1-1---1-4-1-4-1-4-1-4-1--------|
D |----------------2---------2-------------------2------|
A |---4-------------------------------------------------|
E |-----------------------------------------------------|

e |-----------------------------------------------------|
B |-----------------------------------------------------|
G |------1---1-1-1--1---1-1-1--1---1-1--1-1--1-1--1-1---|
D |--------2----------2----------2----------------------|
A |---0-------------------------------------------------|
E |-----------------------------------------------------|

e |-----------------------------------------------------|
B |-----------------------------------------------------|
G |---------1-4-1-1---1-4-1-1---1-4-1-4-1-4-1-4-1-------|
D |------2----------2---------2-------------------2-----|
A |---4-------------------------------------------------|
E |-----------------------------------------------------|

e |-----------------------------------------------------|
B |-----------------------------------------------------|
G |------1---1-1-1--1---1-1-1--1---1-1--1-1--1-1--1-1---|
D |--------2----------2----------2----------------------|
A |---0-------------------------------------------------|
E |-----------------------------------------------------|

e |-----------------------------------------------------|
B |-----------------------------------------------------|
G |---------1-4-1-1---1-4-1-1---1-4-1-4-1-4-1-4-1-------|
D |------2----------2---------2-------------------2-----|
A |---4-------------------------------------------------|
E |-----------------------------------------------------|

e |-----------------------------------------------------|
B |-----------------------------------------------------|
G |------1---1-1-1--1---1-1-1--1---1-1--1-1--1-1--1-1---|
D |--------2----------2----------2----------------------|
A |---0-------------------------------------------------|
E |-----------------------------------------------------|

0:55-0:59
e |----------------------------|
B |----------------------------|
G |----------------------------|
D |----------------------------|
A |---000--000--000--000-------|
E |---000--000--000--000-------|

1:00-1:05
e |----------------------------------------------------------------|
B |----------------------------------------------------------------|
G |----------------------------------------------------------------|
D |---2-0-2-0-2-0-2-0-2-0-2-0-2-4--2-0-2-0-2-0-2-0--0-0-0-0-0--4---|
A |---2-0-2-0-2-0-2-0-2-0-2-0-2-4--2-0-2-0-2-0-2-0--0-0-0-0-0--4---|
E |---2-0-2-0-2-0-2-0-2-0-2-0-2-4--2-0-2-0-2-0-2-0--0-0-0-0-0--4---
Добавлено: 09.05.2012
Другие материалы по этой песне:
  • Аккорды и текст

Страница создана 22.02.2012
http://primanota.ru/before-their-eyes/city-in-a-snow-globe-chords.htm
Привет, Гость.
Предлагаем пройти революционный курс по гитаре.
Подарок от PrimaNota.Ru, забирай!