PrimaNota.ru - самый крупный в мире бесплатный архив песенных текстов, аккордов, табулатур и нот


Before Their Eyes - Bulletproof - таба, видео

Регистрация Запомнить меня
Войти через:  Facebook Google Twitter Vk Yandex Mail.ru

Before Their Eyes - Bulletproof - таба, видео

Печатать
Просмотров: 116
Tabbed by: Joshua Garcia (halofreak731@aol.com)

Tabs for the song: Bulletproof by Before Their Eyes
Please rate and let me know if you have any corrections. Thank you.


Tuning: Drop C# (C# G# C# F# A# D#)


Intro
Guitar 1:
D#||--------------------|
A#||--------------------|
F#||--------------------|
C#||-0-0000-0-0000------|
G#||-0-0000-0-0000------|
C#||-0-0000-0-0000-3h6--|
       ....   ....


Verse
Guitar 1:
D#||----------------------------------|-------------------------------------|
A#||----------------------------------|-------------------------------------|
F#||---------------2-3----------------|---------------2---------------------| x2
C#||-------------0-----0---5----------|-------------0----0-0000-0-0000------|
G#||-----------1-------------4--------|-----------1------0-0000-0-0000------|
C#||-0---2-1-0-------------------3-2--|-0---2-1-0--------0-0000-0-0000-3h6--|
                                                           ....   ....

D#||--------------------------------------------------------------------|
A#||--------------------------------------------------------------------|
F#||--------------------------------------------------------------------|
C#||--------------------------------------------------------------------|
G#||-------------------5-----------------------------------5------------|
C#||-0-0000-0h6-0000-3---0000-3p2-000000-0-0000-0h6-0000-3---0000-3p2---|
       ....     ....     ....     ......   ....     ....     ....

D#||--------------------------------------------------------------------------|
A#||--------------------------------------------------------------------------|
F#||--------------------------------------------------------------------------|
C#||--------------------------------------------------------------------------|
G#||-------------------5-----------------------------------5------------------|
C#||-0-0000-0h6-0000-3---0000-3p2-000000-0-0000-0h6-0000-3---0000-3p2-000000--|
       ....     ....     ....     ......   ....     ....     ....     ......


Pre-Chorus
Guitar 1:
D#||-------|--------|-------|------------|
A#||-------|--------|-------|------------|
F#||-------|--------|-------|------------|
C#||---0~--|---10~--|---0~--|---10~---X--|
G#||---0~--|---10~--|---0~--|---10~---X--|
C#||---0~--|---10~--|---0~--|---10~---X--|


Guitar 2:
D#||--------|--------|--------|------------|
A#||---13~--|---13~--|---13~--|---13~---X--|
F#||---10~--|---12~--|---10~--|---12~---X--|
C#||--------|--------|--------|------------|
G#||--------|--------|--------|------------|
C#||--------|--------|--------|------------|



Chorus
Guitar 1:
D#||--------------------------------------------------------------------------------------|
A#||--------------------------------------------------------------------------------------|
F#||--------------------------------------------------------------------------------------| x2
C#||-0000000000000-7-10--101010101010101010101010-5-8--888888888888-3-7--77777777-111111--|
G#||-0000000000000-7-10--101010101010101010101010-5-8--888888888888-3-7--77777777-111111--|
C#||-0000000000000-7-10--101010101010101010101010-5-8--888888888888-3-7--77777777-111111--|


Guitar 2:
D#||---------------------------|--------------------------|
A#||---------------------------|--------------------------|
F#||-14--------------------x6--|--10-9---9---9-10----x2---| x2
C#||----12-0-10-0-10-12-0------|-------0---0------0-------|
G#||---------------------------|--------------------------|
C#||---------------------------|--------------------------|



Verse
Guitar 1:
D#||----------------------------------|-------------------------------------|
A#||----------------------------------|-------------------------------------|
F#||---------------2-3----------------|---------------2---------------------| x2
C#||-------------0-----0---5----------|-------------0----0-0000-0-0000------|
G#||-----------1-------------4--------|-----------1------0-0000-0-0000------|
C#||-0---2-1-0-------------------3-2--|-0---2-1-0--------0-0000-0-0000-3h6--|
                                                           ....   ....

D#||--------------------------------------------------------------------|
A#||--------------------------------------------------------------------|
F#||--------------------------------------------------------------------|
C#||--------------------------------------------------------------------|
G#||-------------------5-----------------------------------5------------|
C#||-0-0000-0h6-0000-3---0000-3p2-000000-0-0000-0h6-0000-3---0000-3p2---|
       ....     ....     ....     ......   ....     ....     ....

D#||-----------------------------------------------------------------|
A#||-----------------------------------------------------------------|
F#||-----------------------7-----------------------------------------| x2
C#||------0-0-0-0-0-0-0--0---0-----------0-0-0-0-0-0-0---------------|
G#||------0-0-0-0-0-0-0------------------0-0-0-0-0-0-0--------5------|
C#||-1-0--0-0-0-0-0-0-0----------1--1-0--0-0-0-0-0-0-0--6-3-0---3-0--|
          . . . . . . .                  . . . . . . .


D#||-------------------------------------------------------|
A#||-------------------------------------------------------|
F#||-------------------------------------------------------|
C#||-----------------0--0---00000---0---0---00---0-0-0-0---|
G#||-----------------0--0---00000---0---0---00---0-0-0-0---|
C#||-1---0-0-0-------0--0---00000---0---0---00---0-0-0-0---|
         . . .              .....   .   .   ..   . . . .



Chorus
Guitar 1:
D#||--------------------------------------------------------------------------------------|
A#||--------------------------------------------------------------------------------------|
F#||--------------------------------------------------------------------------------------| x2
C#||-0000000000000-7-10--101010101010101010101010-5-8--888888888888-3-7--77777777-111111--|
G#||-0000000000000-7-10--101010101010101010101010-5-8--888888888888-3-7--77777777-111111--|
C#||-0000000000000-7-10--101010101010101010101010-5-8--888888888888-3-7--77777777-111111--|


Guitar 2:
D#||---------------------------|--------------------------|
A#||---------------------------|--------------------------|
F#||-14--------------------x6--|--10-9---9---9-10----x2---| x2
C#||----12-0-10-0-10-12-0------|-------0---0------0-------|
G#||---------------------------|--------------------------|
C#||---------------------------|--------------------------|



Breakdown
Guitar 1:
D#||------------------------------------------------------|
A#||------------------------------------------------------|
F#||------------------------------------------------------|
C#||-0~--00~-0~-00000~----0000000~0000000~--0~--00~--0-0--|
G#||-0~--00~-0~-00000~----0000000~0000000~--0~--00~--0-0--|
C#||-0~--00~-0~-00000~----0000000~0000000~--0~--00~--0-0--|
     .   ..  .  .....     ....... .......   .   ..   . .

D#||--------------------------------------------------------------------|
A#||--------------------------------------------------------------------|
F#||--------------------------------------------------------------------|
C#||-0---00--0~-00000-----0000000~0000000---0---00---0-0---0000000---0--|
G#||-0---00--0~-00000-----0000000~0000000---0---00---0-0---0000000---0--|
C#||-0---00--0~-00000-----0000000~0000000---0---00---0-0---0000000---0--|
     .   ..  .  .....     ....... .......   .   ..   . .   .......   .

D#||----------------------------------------------------------------|
A#||----------------------------------------------------------------|
F#||----------------------------------------------------------------|
C#||-0---00--0~-00000-----0000000~0000000---0---00---0-0---0000000--|
G#||-0---00--0~-00000-----0000000~0000000---0---00---0-0---0000000--|
C#||-0---00--0~-00000-----0000000~0000000---0---00---0-0---0000000--|
     .   ..  .  .....     ....... .......   .   ..   . .   .......


Guitar 1:
D#||------------------------------------------------------------------|
A#||------------------------------------------------------------------|
F#||------------------------------------------------------------------| x2
C#||-000000000---------------------------0000000000~0~0~------0-0-0---|
G#||-000000000---------------------------0000000000~0~0~------0-0-0---|
C#||-000000000-0-0-0-0-00----1-1---1-1---0000000000~0~0~------0-0-0---|
     .........                           .......... . .       . . .


Guitar 2:
D#||-----------------------------------------------------------------------------------|
A#||-----------------------------------------------------------------------------------|
F#||-77777777777777777777777777777777101010101010101010101010101010106666666666666666--|
C#||-----------------------------------------------------------------------------------|
G#||-----------------------------------------------------------------------------------|
C#||-----------------------------------------------------------------------------------|


D#||-----------------------------------------------------------------------|
A#||---------------------------------11111111111111111111111111111111-10~--|
F#||-77777777777777777777777777777777--------------------------------------|
C#||-----------------------------------------------------------------------|
G#||-----------------------------------------------------------------------|
C#||-----------------------------------------------------------------------|
                                     ^ (11's, not 1's)

Guitar 2 (Dubbed):
D#||-------------------------------------------------------------------|
A#||-------------------------------------------------------------------|
F#||-------------------------------------------------------------------|
C#||-7777777777777777777777777777777788888888888888888888888888888888--|
G#||-------------------------------------------------------------------|
C#||-------------------------------------------------------------------|


D#||-----------------------------------------------------|
A#||-----------------------------------------------------|
F#||-----------------------------------------------------|
C#||-55555555555555555555555555555555333333333333-3-3~---|
G#||-----------------------------------------------------|
C#||-----------------------------------------------------|



Interlude
Guitar 1:
D#||-------|--------|
A#||-------|--------|
F#||-------|--------|
C#||---8~--|---10~--|
G#||---8~--|---10~--|
C#||---8~--|---10~--|


Guitar 2:
D#||---------------------------|--------------------------|
A#||---------------------------|--------------------------|
F#||-14--------------------x2--|--10-9---9---9-10----x2---|
C#||----12-0-10-0-10-12-0------|-------0---0------0-------|
G#||---------------------------|--------------------------|
C#||---------------------------|--------------------------|



Chorus
Guitar 1:
D#||--------------------------------------------------------------------------------------|
A#||--------------------------------------------------------------------------------------|
F#||--------------------------------------------------------------------------------------| x2
C#||-0000000000000-7-10--101010101010101010101010-5-8--888888888888-3-7--77777777-111111--|
G#||-0000000000000-7-10--101010101010101010101010-5-8--888888888888-3-7--77777777-111111--|
C#||-0000000000000-7-10--101010101010101010101010-5-8--888888888888-3-7--77777777-111111--|


Guitar 2:
D#||---------------------------|--------------------------|
A#||---------------------------|--------------------------|
F#||-14--------------------x6--|--10-9---9---9-10----x2---| x2
C#||----12-0-10-0-10-12-0------|-------0---0------0-------|
G#||---------------------------|--------------------------|
C#||---------------------------|--------------------------|



Verse/Outro
Guitar 1:
D#||----------------------------------|-------------------------------------|
A#||----------------------------------|-------------------------------------|
F#||---------------2-3----------------|---------------2---------------------| x2
C#||-------------0-----0---5----------|-------------0----0-0000-0-0000------|
G#||-----------1-------------4--------|-----------1------0-0000-0-0000------|
C#||-0---2-1-0-------------------3-2--|-0---2-1-0--------0-0000-0-0000-3h6--|
                                                           ....   ....


Guitar 1/2
D#||-------|
A#||-------|
F#||-------|
C#||---0---|
G#||---0---|
C#||---0---|





Tablature Legend
----------------
 h   - hammer-on
 p   - pull-off
 b   - bend
 r   - release bend
 *   - pinch harmonic
 '   - natural harmonic
 x   - mute note
 .   - palm mute
 /   - slide down
 \   - slide up
Добавлено: 23.07.2012
Другие материалы по этой песне:
  • Аккорды и текст

Страница создана 23.07.2012
http://primanota.ru/before-their-eyes/bulletproof-chords.htm
Привет, Гость.
Предлагаем пройти революционный курс по гитаре.
Подарок от PrimaNota.Ru, забирай!