PrimaNota.ru - самый крупный в мире бесплатный архив песенных текстов, аккордов, табулатур и нот


Before The Dawn - Wrath - таба, видео

Регистрация Запомнить меня
Войти через:  Facebook Google Twitter Vk Yandex Mail.ru

Before The Dawn - Wrath - таба, видео

Печатать
Просмотров: 130
Intro 
|5-5-5-5-5-5-5-5-5-5-5-5-5-5-5-5|-8-8-8-8-8-8-8-8-8-8-8-8-8-8-8-8-6-6-6-6-6-6-6-6-6-6-6-6-6-6-6-6|
|-------------------------------|----------------------------------------------------------------|
|--Fading-In--------------------|----------------------------------------------------------------|
|-------------------------------|----------------------------------------------------------------|
|-------------------------------|----------------------------------------------------------------|
|-------------------------------|----------------------------------------------------------------|

|10-10-10-10-10-10-10-10-12-12-12-12------------------------------------------------------------|
|------------------------------------13-13-13-13-10-10-10-10-10-10-10-10-10-10-10-10-10-10-10-10|
|-----------------------------------------------------------------------------------------------|
|-----------------------------------------------------------------------------------------------|
|-----------------------------------------------------------------------------------------------|
|-----------------------------------------------------------------------------------------------|

|-----------------------------------------------------------------------------------------------|
|13-13-13-13-13-13-13-13-13-13-13-13-13-13-13-13-11-11-11-11-11-11-11-11-11-11-11-11-11-11-11-11|
|-----------------------------------------------------------------------------------------------|
|-----------------------------------------------------------------------------------------------|
|-----------------------------------------------------------------------------------------------|
|-----------------------------------------------------------------------------------------------|

|10-10-10-10-10-10-10-10-12-12-12-12------------|
|------------------------------------13-13-13-13|
|-----------------------------------------------|
|-----------------------------------------------|
|-----------------------------------------------|
|-----------------------------------------------|

|-----------------------------------------------------------------------------------------------|
|-----------------------------------------------------------------------------------------------|
|-----------------------------------------------------------------------------------------------|
|-----------------------------------------------------------------------------------------------|
|12------------12------------12--------15------------15------------15--------13------------13---|
|---15-0-0-0-0----15-0-0-0-0----15-0-0----17-0-0-0-0----17-0-0-0-0----17-0-0----15-0-0-0-0----15|
       . . . .       . . . .       . .       . . . .       . . . .       . .       . . . .     
|----------------------------------------------------------------------------------------------|
|----------------------------------------------------------------------------------------------|
|----------------------------------------------------------------------------------------------|
|----------------------------------------------------------------------------------------------|
|--------13--------17------------17------------17--------12------------12------------12--------|
|0-0-0-0----15-0-0----17-0-0-0-0----17-0-0-0-0----17-0-0----15-0-0-0-0----15-0-0-0-0----15-0-0-|
 . . . .       . .       . . . .       . . . .       . .       . . . .       . . . .       . .
|-----------------------------------------------------------------------------------------------|
|-----------------------------------------------------------------------------------------------|
|-----------------------------------------------------------------------------------------------|
|-----------------------------------------------------------------------------------------------|
|----12--------15------------15------------15--------13------------13------------13--------17---|
|0-0----15-0-0----17-0-0-0-0----17-0-0-0-0----17-0-0----15-0-0-0-0----15-0-0-0-0----15-0-0----17|
 . .       . .       . . . .       . . . .       . .       . . . .       . . . .       . .     
|------------------------------------------------------------------------------------------------|
|------------------------------------------------------------------------------------------------|
|------------------------------------------------------------------------------------------------|
|------------------------------------------------------------------------------------------------|
|---------17------------17-----------------------------------------------------------------------|
|-0-0-0-0----17-0-0-0-0----17-0-0-7p0-0-0-0-0-7p0-0-0-0-0-7p0-0-0-9p0-0-0-0-0-9p0-0-0-0-0-9p0-0-0|
  . . . .       . . . .       . .     . . . .     . . . .     . .     . . . .     . . . .     . .
|-------------------------------------------------------------|
|-------------------------------------------------------------|
|-------------------------------------------------------------|
|-------------------------------------------------------------|
|------------------------------------5---8---5---5---8---7---5|
|7p0-0-0-0-0-7p0-0-0-0-0-7p0-0-0-0-0---0---0---0---0---0---0--| 2x
     . . . .     . . . .     . . . .   .   .   .   .   .   .  
Verse
|----------------------------------------------------------------------------------|
|----------------------------------------------------------------------------------|
|--------------*-------------------------*-----------------------------*-----------|
|0------0------5-*-0--0--0--------0------5-*---------------0----0------5-*-0-------|
|0------0--------5-0--0--0--------0--------5---5h7---7h8---0----0--------5-0-------|
|0--0-0-0--0-0-----0--0--0--0-0-0-0--0-0-----0-----0-----0-0--0-0--0-0-----0--0-0-0|
 .  . .    . .              . . .    . .     .     .     .    .    . .        . . .
|----------------------------------------|
|----------------------------------------|
|----------------------------------------|
|-----------------10-10-10-10-10-10-10-10|
|-5/7-7-7-7/8-8-8-8--8--8--8--10-10-10-10|
|-----------------------------10-10-10-10| 2x

Chorus or pre-chourse im not sure
|------------------------------------------------------------------------------------------------|
|------------------------------------------------------------------------------------------------|
|-----------------------------------------------------------------5-5-5-5-5-5-5-5-5-5-5-5-5-5-5-5|
|0------0---------------------0--------------------0---------------------------------------------|
|0------0------5-5-5-5-7------0------7-7-7-7-8-----0------8-8-8-8--------------------------------|
|0--0-0-0--0-0------------0-0-0--0-0-----------0-0-0--0-0----------------------------------------|2x
     . .    . .            . .    . .           . .    . .
|------------------------------------------------------------------------------------------------|
|------------------------------------------------------------------------------------------------|
|------------------------------------------------------------------------------------------------|
|-8-8-8-8-8-8-8-8-8-8-8-8-8-8-8-8-8-8-8-8-8-8-8-8-8-8-8-8-8-8-8-8-3-3-3-3-3-3-3-3-3-3-3-3-3-3-3-3|
|-8-8-8-8-8-8-8-8-8-8-8-8-8-8-8-8-8-8-8-8-8-8-8-8-8-8-8-8-8-8-8-8-3-3-3-3-3-3-3-3-3-3-3-3-3-3-3-3|
|-8-8-8-8-8-8-8-8-8-8-8-8-8-8-8-8-8-8-8-8-8-8-8-8-8-8-8-8-8-8-8-8-3-3-3-3-3-3-3-3-3-3-3-3-3-3-3-3|

|------------------------------------------------|
|------------------------------------------------|
|------------------------------------------------|
|-10-10-10-10-10-10-10-10-10-10-10-10-10-10-10-10|
|-10-10-10-10-10-10-10-10-10-10-10-10-10-10-10-10|
|-10-10-10-10-10-10-10-10-10-10-10-10-10-10-10-10|

Play Intro

Play Verse

Play Chorus

Breakdown
|-----------------------------------------------------------------------------------|
|-----------------------------------------------------------------------------------|
|-----------------------------------------------------------------------------------|
|-0-------------------------------------------0-------------------------------------|
|-0-------------------------------------------0-------------------------------------|
|-0-------------------------------------------0-------------------------------------|

Riff
|--------------------------------------------------------------------------------|
|--------------------------------------------------------------------------------|
|---------------------------------5-5-5-5----------------------------------------|
|-7-7-7-7-7-7-7-7-7-7-7-7-5-5-5-5---------5-5-5-5-5-5-7-7-7-7-7-7----------------|
|-----------------------------------------------------------------8-8-8-8-8-8-8-8|
|--------------------------------------------------------------------------------|

|------------------------------------------------|
|------------------------------------------------|
|------------------------------------------------|
|------------------------------------------------|
|---------------------------------5-5-5-5-5-5-5-5|
|-7-7-7-7-7-7-7-7-8-8-8-8-8-8-8-8----------------| 2x

Play Chorus 
Добавлено: 06.07.2013
Другие материалы по этой песне:

Страница создана 31.03.2012
http://primanota.ru/before-the-dawn/wrath-chords.htm
Привет, Гость.
Предлагаем пройти революционный курс по гитаре.
Подарок от PrimaNota.Ru, забирай!