PrimaNota.ru - самый крупный в мире бесплатный архив песенных текстов, аккордов, табулатур и нот


Before The Dawn - Guardian - таба, видео

Регистрация Запомнить меня
Войти через:  Facebook Google Twitter Vk Yandex Mail.ru

Before The Dawn - Guardian - таба, видео

Печатать
Просмотров: 168
Intro
|--------------------------------------------------------|
|--------------------------------------------------------|
|-7---7-7-7-7-7--7-7-7-7-7--7-7-7-7/10--10-10-10-10-10\5-|
|--------------------------------------------------------|
|--------------------------------------------------------|
|--------------------------------------------------------|

|------------------------5-----------------------------------|
|--------------------5-7-------------------------------------|
|-5-5-5-5-5--5-5-5-5-------3--3-3-0-0-0--0-7-7-7-7--7-7-7-7-7|
|------------------------------------------------------------|
|------------------------------------------------------------|
|------------------------------------------------------------|

|----------------------------------------------5------------|
|------------------------------------------5-7--------------|
|/10--10-10-10-10-10\5--5-5-5-5-5--5-5-5-5-------3--3-3-0-0-|
|-----------------------------------------------------------|
|-----------------------------------------------------------|
|-----------------------------------------------------------|2x

|-------------------------------------------------------------|
|-------------------------------------------------------------|
|-------------------------------------------------------------|
|0---------3-----8--------5--------0---------3-----8--------5-|
|0---------3-----8--------5--------0---------3-----8--------5-|
|0---------3-----8--------5--------0---------3-----8--------5-|

|------------------------------------------------------------------|
|------------------------------------------------------------------|
|------------------------------------------------------------------|
|------------15-15-14-15-14-------17-17-15-15-14-15-14-------------|
|15-15-17-17----------------17-17----------------------15-15-17-17-|
|------------------------------------------------------------------|

|------------------------------------------------------------------|
|------------------------------------------------------------------|
|------------------------------------------------------------------|
|15-15-14-15-14-------------15-15-14-15-14-------------15-15-14-15-|
|---------------15-15-17-17----------------17-15-17-17-------------|
|------------------------------------------------------------------|

|----------------------------------------------------------------|
|----------------------------------------------------------------|
|----------------------------------------------------------------|
|14-------17-17-15-15-14-15-14--------------15-15-14-15-14-12~---|
|---17-17----------------------15-15-17-17-----------------------|
|----------------------------------------------------------------|

Verse  Part 1
|-------------------------------------------|
|-------------------------------------------|
|-------------------------------------------|
|-----------------------------5---3---5-5-5-|
|-----------------------3-5---5---3---3-3-3-|
|-0-0-0-2-4-5-0-0-0-3-5-----0-5-0-3-0-------|8x
  . . .         . .         .   .   .
Part 2
|--------------------------------------------------|
|--------------------------------------------------|
|--------------------------------------------------|
|-----------------------------3--5-5-5-5-5-5-5-5-5-|
|0-0-0--0-0-0-0-0---0-0-0-0-0-3--3-3-3-3-3-3-3-3-5-|
|0-0-0--0-0-0-0-0---0-0-0-0-0-3------------------5-|
 . . .  . . . . .   . . . . . 
|----------------------------------|
|----------------------------------|
|----------------------------------|
|5-5-5-5-5-5-5-5-5-5-5-8-8-8-8-8-8-|
|5-5-5-5-5-5-5-5-5-5-5-8-8-8-8-8-8-|
|5-5-5-5-5-5-5-5-5-5-5-8-8-8-8-8-8-| Play part 2 2x

Chorus
|-----------------------------------------------------------------|
|-----------------------------------------------------------------|
|-----------------------------------------------------------------|
|15-14-12-12--12-12--12-10-11-12--12-12--12-12--12-15-14-12-14-15-|
|-----------------------------------------------------------------|
|-----------------------------------------------------------------|

|-----------------------------------------------------------------|
|-----------------------------------------------------------------|
|-----------------------------------------------------------------|
|14-12-12--12-12--12-10-11-12--12-12--12-12--12-15-14-12-14-15-14-|
|-----------------------------------------------------------------|
|-----------------------------------------------------------------|

|-----------------------------------------------------------------|
|-----------------------------------------------------------------|
|-----------------------------------------------------------------|
|12-12--12-12--12-10-11-12--12-12--12-12--12-15-14-12-14-15-14-10-|
|-----------------------------------------------------------------|
|-----------------------------------------------------------------|

|----------------------------|-------------------|
|----------------------------|-------------------|
|----------------------------|-----17----19----17|
|10--10-10--10-13-12-10-10-12|--15----15----15---|
|----------------------------|-------------------|
|----------------------------|-------------------|

|-----------------------------------------------------------------|
|-----------------------------------------------------------------|
|-----------------------------------------------------------------|
|15-14-12-12--12-12--12-10-11-12--12-12--12-12--12-15-14-12-14-15-|
|-----------------------------------------------------------------|
|-----------------------------------------------------------------|

|-----------------------------------------------------------------|
|-----------------------------------------------------------------|
|-----------------------------------------------------------------|
|14-12-12--12-12--12-10-11-12--12-12--12-12--12-15-14-12-14-15-14-|
|-----------------------------------------------------------------|
|-----------------------------------------------------------------|

|-----------------------------------------------------------|
|-----------------------------------------------------------|
|-----------------------------------------------------------|
|12-12--12-12--12-10-11-12--12-12--12-12--12-15-14-12-14-15-|
|-----------------------------------------------------------|
|-----------------------------------------------------------|

|17-------------17-------------15-------------15-------------|
|---15-15-15-15----15-15-15-15----13-13-13-13----13-13-13-10-|
|------------------------------------------------------------|
|------------------------------------------------------------|
|------------------------------------------------------------|
|------------------------------------------------------------|

|-----------|
|15~~~~~~~~~|
|-----------|
|-----------|
|-----------|
|-----------|

Play Verse

Play Chorus

Break
|--------------------------------------not-sure-here|
|---------------------------------------------------|
|---------------------------------------------------|
|0--0----------------------------------5--7--7-7-5--|
|0--0-7-----7-8-8-------10-10-10-------5--7--7-7-5--|
|0--0---0-0-------0-0-0----------0-0-0-5--7--7-7-5--|
        . .       . . .          . . .
|--------------------------------------not-sure-here---|
|------------------------------------------------------|
|------------------------------------------------------|
|0--0----------------------------------5-7-7-7-7-7-5-5-|
|0--0-7-----7-8-8-------10-10-10-------5-7-7-7-7-7-5-5-|
|0--0---0-0-------0-0-0----------0-0-0-5-7-7-7-7-7-5-5-|
        . .       . . .          . . .
|--------------------------------------not-sure-here|
|---------------------------------------------------|
|---------------------------------------------------|
|0--0----------------------------------5--7--7-7-5--|
|0--0-7-----7/8-8-------10-10-10-------5--7--7-7-5--|
|0--0---0-0-------0-0-0----------0-0-0-5--7--7-7-5--|
        . .       . . .          . . .
|----------------------------------------------------|
|----------------------------------------------------|
|----------------------------------------------------|
|7--7-7-7-7-7--7-7-7-7/8-8-8/12-12-12\10-10-10\8-7-8-|
|7--7-7-7-7-7--7-7-7-7/8-8-8/12-12-12\10-10-10\8-7-8-|
|7--7-7-7-7-7--7-7-7-7/8-8-8/12-12-12\10-10-10\8-7-8-|

Dont know if this is a solo or not
|----------------------------------------------------|
|----------------------------------------------------|
|-------------------------------------------14-14-14-|
|12--12-12-12-15-14-12-12-12-12-12-15-14-12----------|
|----------------------------------------------------|
|----------------------------------------------------|

|----------------------------------------------------|
|----------------------------------------------------|
|12--------------------------------------------------|
|---15-14-12--12-12-12-15-14-12-12-12-12-12-15-14-12-|
|----------------------------------------------------|
|----------------------------------------------------|

|----------------------------------------------------|
|----------------------------------------------------|
|14-14-14-12-----------------------------------------|
|------------15-14-12--12-12-12-15-14-12-12-12-12-12-|
|----------------------------------------------------|
|----------------------------------------------------|

|----------------------------------------------------|
|----------------------------------------------------|
|---------14-14-14-12--------------------------------|
|15-14-12-------------15-14-12-15--15-15-15-17-15-14-|
|----------------------------------------------------|
|----------------------------------------------------|

|----------------------------------------------|
|----------------------------------------------|
|----------------------------------------------|
|---------14-15--15-15-15-15-17-15-14-15-14-12-|
|15-15-17--------------------------------------|
|----------------------------------------------| 2x
    .  .  .

Play Chorus


I know theres a few mistakes but i hope it helps.
Добавлено: 08.03.2012
Другие материалы по этой песне:
  • Аккорды и текст

Страница создана 08.03.2012
http://primanota.ru/before-the-dawn/guardian-chords.htm
Привет, Гость.
Предлагаем пройти революционный курс по гитаре.
Подарок от PrimaNota.Ru, забирай!