PrimaNota.ru - самый крупный в мире бесплатный архив песенных текстов, аккордов, табулатур и нот


Бетховен Людвиг ван - Tempest Sonata Mvt 3 - таба, видео

Регистрация Запомнить меня
Войти через:  Facebook Google Twitter Vk Yandex Mail.ru

Бетховен Людвиг ван - Tempest Sonata Mvt 3 - таба, видео

Печатать
Просмотров: 452
Уроки эстрадного вокала в Санкт-Петербурге
Beethoven's Tempest Sonata 3rd Movement
Capo on 5th fret

BEETHOVEN'S TEMPEST MVT. 3 CAPO 5TH
E|--------------------------------------------------------------------------------------------------|
B|-----1--0--------------1--0--------------1--0--------------1-----0--------0--3--1--0--------------|
G|-----------2-----2-----------2-----2-----------2-----2--------2--------1--1-----------------------|
D|--2-----------2-----2-----------2-----2-----------2-----2-----------2-----------------------------|
A|-----------0-----------------0-----------------0--------------------------------------------------|
E|-----------------------------------------------------------------0-----------------0--------------|


E|--------------------------------------------------------------------5--1--------1-----1-----------|
B|--------0--3--1--0--------0--3--1--0--------0--3--0--1--------1--5-----------3--------------------|
G|-----1--1--------------1--1--------------1--1--------------2--2-----------2--------2--------------|
D|--2-----------------2-----------------2-----------------2--------------0--------------------------|
A|-----------------------------------------------------0--------------------------------------------|
E|-----------------0-----------------0--------------------------------------------------------------|


E|--------------------------------0-----------------------------------0-----------------------------|
B|--3--------3-----3--0--------0-----0--1--------1-----1--------------------------------------------|
G|--------3-----------------1-----------------2-----------2--------2-----2--1--------1--------------|
D|-----3--------3--------2-----------------2--------2-----------2-----------------0--2--------------|
A|--1-----------------------------------0--------------------3-----------------2--------------------|
E|--------------------4-----------------------------------0-----------------0-----------------------|


E|--------------------------------0-----5--0--1--------1-----1--------------------------------0-----|
B|--------------------1--------1-----1--------------3-----------3--------3-----3--0--------0-----0--|
G|-----1--2-----------2-----2--------------------2--------2-----------3-----------------1-----------|
D|--2--------------2-----2--------------------0--------------------3--------3--------2--------------|
A|--------0-----3-----------------------------------------------1-----------------------------------|
E|-----------5--------------------------------------------------------------------4-----------------|



E|--------------------------------0-----------------------------------|
B|--1--------1-----1--------------------------------------------------|
G|--------2-----------2--------2-----2--1--------1-----1--2-----------|
D|-----2--------2-----------2-----------------0--2--2-----------------|
A|--0--------------------3-----------------2--------------0--3--------|
E|--------------------0-----------------0-----------------------------|


E|--------------------------0-----------------------------------0--5--4--------------------|
B|--------------------------------4--3--2--1--0--------------------------------------------|
G|-----------------------------2-----------------3--2--------2-----------------1-----1--2--|
D|-----------------------2--------------------------------2-----------------0--2--2--------|
A|-----------------------------------------------------3-----------------2--------------0--|
E|--------------------------0-----------------------0-----------------0--------------------|
Добавлено: 17.04.2012
Другие материалы по этой песне:
  • Аккорды и текст

Страница создана 17.04.2012
http://primanota.ru/beethoven-ludwig-van/tempest-sonata-mvt-3-chords.htm
Привет, Гость.
Предлагаем пройти революционный курс по гитаре.
Подарок от PrimaNota.Ru, забирай!