PrimaNota.ru - самый крупный в мире бесплатный архив песенных текстов, аккордов, табулатур и нот


Бетховен Людвиг ван - Piano Sonata Op 13 - таба, видео

Регистрация Запомнить меня
Войти через:  Facebook Google Twitter Vk Yandex Mail.ru

Бетховен Людвиг ван - Piano Sonata Op 13 - таба, видео

Печатать
Просмотров: 233
Beethoven's Piano Sonata Op .13, 2nd movement for guitar solo.
Arranged, transcribed by S.A 'All my own work'.
Dedicated to A S of W.Falls N.Y
 
e|-------------------------------------------------|---------------------
B|-------------------------------------------------|-1-------------------
G|-2-----------------------0-----------------------|---------------------
D|-3------------3----------2------------2----------|-3-------------------
A|---------3----------3----1-------3----------3----|-0----------3--------
E|-1-----------------------------------------------|---------------------
 1                                                 2                
 
                                                                     
-----------------------------------|-----------------------1------------
-----------------------------------|------------1-----------------------
-----------0------------3----------|-2----------0----------2------------
3-----------------------5----------|-3---------------------------3------
------3------------3----------3----|-------3----------3-----------------
-----------0-----------------------|-1----------0-----------------------
                                   3                                 
 
                                                                 
3----------|----------------------------------------------------|-------
0----------|-1---------------------------------------2----------|-------
-----------|------------0----------0------------0----------0----|-------
0-----3----|-2---------------2----------2------------2----------|-------
-----------|-3--------------------------3-----------------------|-------
-----------|----------------------------------------------------|-------
           4                                                    5
 
                                                         
---------------------------------------------------|--------------------
3--------------------------------------------------|-1------------------
--------0----------0----0------------------2----3--|--------------------
2------------2----------2------------2-------------|-3------------------
1-----------------------1-------3----------3-------|-0-------3----------
---------------------------------------------------|--------------------
                                                   6             
 
                                                            
-----------------------------------|------------------------------------
-----------------------------------|------------------------------------
-----------------------------------|-3-----------------------2----------
3----------4-----------------------|-0------------0---------------------
------3----3-------0----3-----0----|---------1----------1----1----------
-----------------------------------|-3-----------------------1----------
                                   7                                
 
                                                            
-------------|-----------------------------------------------1---|------
-------------|-------------------------------------------1-------|------
0------------|-0-------------------------------------2-----------|------
----3----2---|-2-----------------------3---------3---------------|------
1---1----1---|-1-------3----1-----3----0-----3-------------------|------
-------------|-1------------1----------1-------------------------|------
             8                                                   9
 
                                                                
5-----------------------3-----------------------|--8----------1---------
--------1----------1------------1----------1----|-----------------------
-------------2----------0------------0----------|-----------------------
7-----------------------------------------------|--10-------------------
------------------------3-----------------------|--0--------------------
1-----------------------------------------------|-----------------------
                                                10                
 
                                                                     
------1------------3----6-----3----|--5----------8----------13----------
1----------1-----------------------|--------6----------8----------10----
------------------------5----------|--5----------5----------10----------
-----------------------------------|--3---------------------------------
-----------------------------------|-------------7----------------------
-----------0-----------------------|------------------------10----------
                                   11                                 
 
                                                                 
15---------|--8---------------0----------0----------9----------|--------
------12---|-------------8----------8----------8----------8----|--------
10---------|--9-------------------------------------9----------|--------
-0---------|---------------------------------------------------|--------
-----------|-----------------------------7---------------------|--------
-----------|--8------------------------------------------------|--------
           12                                                  13
 
                                                                  
10-----------0----------3----------0-----5----6--|--8-------------------
--------8----------8----5-----1------------------|--6------------6------
9----------------------------------------5-------|----------5-----------
------------------------2------------------------|----------------------
-------------------------------------------------|--0-------------------
6------------------------------------------------|----------------------
                                                 14                   
 

-----------------------------|--6-----------------------5-------3-------
-----7-----------------------|---------------3--------------------------
5-----------------5-----2----|--7-------3----------3----3-------3-------
-------------7----------0----|----------0----------0--------------------
-----0-------5----0----------|---------------1------------------3-------
-----------------------------|--6-----------------------3---------------
                             15                                     
 
                                                          
1-----0----|--3--------------------------1----------|--5----------------
-----------|-------------1----------1---------------|-------------------
3-----3----|--3---------------3----------2-----2----|-----------2-------
-----------|------------------2----------3----------|-------------------
------3----|-------------3----------3---------------|-------------------
3----------|--1-------------------------------------|-------------------
           16                                       17              
 
                                                     
---------------13---12---10---|--17-------0----0----0----5----13--------
------------------------------|----------------10---10---6----10--------
2----2----2-------------------|--14-------14------------------10--------
------------------------------|--14----------------------0----0---------
---------------12---12---12---|-----------------------------------------
------------------------------|-------------------------------10--------
                              18                                  
 

12-----10---|--5----------------------------13---12---10---|------------
10-----10---|----------------------------------------------|--13--------
10-----10---|--6--------6----6----6----7-------------------|--0---------
0------0----|--5--------5----5----5----7----12---12---12---|--15--------
------------|--7--------7----7----7---------12---12---12---|--17--------
------------|----------------------------------------------|------------
            19                                             20      
 

--------------------------------------10---------8--|--8-------0--------
-----12---------------13-----12-10-12-0-----0-------|--5-------1--------
10---10-----10---10-------------------10----10------|--5-------2--------
12---12-----12---12---15----------------------------|--7----------------
10---10-----10---11---17----------------------------|-------------------
----------------------16----------------------------|-------------------
                                                    21             
 

0----0---------------0-------------1----5--|--7-----12----0----10-------
1----1----3-----1----1----3--2--3--1-------|--10----------1-------------
2----2----5--------------------------------|--12---------------9--------
----------3-----3------------------3-------|--------14---------10-------
-------------------------------------------|--------15------------------
-------------------------------------------|----------------------------
                                           22                       
 
                                         
8--7------------------------------|-------------0----3----0---------|---
------10-8----7--10----8--6-------|--------8-------------------1----|---
-------------------------------7--|--5------------------------------|---
----------------------------------|---------------------------------|---
---------8-------8--------8-------|--7------------------------------|---
---------7-------7--------7-------|--8------------------------------|---
                                  23                                24
 
           
---------------------------------------------------|--------------------
1-------------0----0-------------------------------|--------------------
-------------------------2----2-----1----1----0----|--0-----0-----------
3------------------3----------3----------3---------|--2----------2------
5------------------5----------5----------5---------|--3-----------------
3--------------------------------------------------|--------------------
                                                   25                
 
                  
-------------------|----------------------------------------------|-----
----------------1--|--1------0----0-------------------------------|-----
0----0-------------|-------------------2----2------1----1----0----|-----
-----2-------------|--3---------------------3---------------------|-----
-----------3-------|--5---------------------5---------------------|-----
-------------------|--3---------------------3---------------------|-----
                   26                                             27
 
                                                                 
-----------------------------------------------------|------------------
-----------------------------------------------------|------------------
-----------------------------------------------------|------------------
0----------------------------------------------------|------------------
3-----------------4----4----3----3----2----2----3----|--3----4----4-----
0----------------------------------------------------|------------------
                                                     28               
 
                                                                   
-------------------------|----------------------------------------------
-------------------------|----------------------------------------------
-------------------------|--2-----------------------0-------------------
-------------------------|--3------------3----------2------------2------
3----3----2----2----1----|----------3----------3----1-------3-----------
-------------------------|--1-------------------------------------------
                         29                                           
 
                                                                  
-----|-----------------------------------------------------|------------
-----|--1--------------------------------------------------|------------
-----|-----------------------------0------------3----------|--2---------
-----|--3---------------3-----------------------5----------|--3---------
3----|--0----------3----------3------------3----------3----|------------
-----|-----------------------------0-----------------------|--1---------
     30                                                    31      
 
                                                                   
----------------1----------3----------|---------------------------------
-----1---------------------0----------|--1------------------------------
-----0----------2---------------------|-------------0----------0--------
----------------------3----0-----3----|--2---------------2--------------
3----------3--------------------------|--3------------------------------
-----0--------------------------------|---------------------------------
                                      32                           
 
                                                              
------------------------|-----------------------------------------------
-------------2----------|--3--------------------------------------------
--------0----------0----|----------0----------0----0--------------------
2------------2----------|--2------------2----------2------------2-------
3-----------------------|--1-----------------------1-------3------------
------------------------|-----------------------------------------------
                        33                                           
 
                                                                
--------|--------------------------------------------------|------------
--------|--1-----------------------------------------------|------------
2----3--|--------------------------------------------------|--3---------
--------|--3------------3----------4-----------------------|--0---------
3-------|--0-------3----------3----3-------0----3-----0----|------------
--------|--------------------------------------------------|--3---------
        34                                                 35        
 
                                                       
---------------------------------------|--------------------------------
---------------------------------------|--------------------------------
----------------2-------0--------------|--0-----------------------------
-----0-----------------------3----2----|--2-----------------------------
1----------1----1-------1----1----1----|--1-------3----1-----3----------
----------------1----------------------|--1------------1----------------
                                       36                        
 
                    
------------|--1---------------4-------------3-------------1------------
------1-----|--1-------1---1---------1---1---1-----1---1---1-----1------
------------|--1-------1---1---5-----1---1---1-----1---1---1-----1------
3-----------|--3---------------6----------------------------------------
0-----------|-----------------------------------------------------------
1-----------|--1--------------------------------------------------------
            37                                                      
 
    
----|--0------------6-------------------------------------|--1----------
1---|--1----1---1---------1---1---1---1---1---1---1---1---|--1-----1----
1---|---------------5-----0-------0---0-------------------|--1-----1----
----|-------------------------4-----------3---2---0-------|--3----------
----|-------------------------------------------------3---|-------------
----|--3--------------------------------------------------|--1----------
    38                                                    39          
 
                    
----4-------------3-------------1-------------|--1---------------0------
1---------1---1---1-----1---1---1-----1---1---|--1-------1---1---1------
1---5-----1---1---1-----1---1---1-----1---1---|--0-------0---0---0------
----6-----------------------------------------|-------------------------
----------------------------------------------|--3----------------------
----------------------------------------------|-------------------------
                                              40                      
 
                 
----------------------------------|--1-------------4-------------3------
1---1---1---1---1---1---1-----1---|--1-----1---1---------1---1---1------
0---0---0---0---0---0---0-----0---|--1-----1---1---5-----1---1---1------
----------------------------------|----------------6--------------------
3---2---3---4---3---1-------------|-------------------------------------
------------------------4-----3---|--1----------------------------------
                                  41                                  
 
                         
--------1-------------|--11---------------8---4---4---------------------
1---1---1-----1---1---|-------4---4-----------4---6----6---6---6---6----
1---1---1-----1---1---|--8----5---5---8---8---5---6----6---6---6---6----
----------------------|--10---6---6---10--10--6---6----6---6---6---6----
----------------------|--11-----------11--11----------------------------
----------------------|-------------------------------------------------
                      42                                              
 
             
-----|--9----3---3---3---6---3---4---------------------------|----------
-----|--8----4---4---4---4---4-------------------------------|----------
6----|--8----6---6---6---6---6-----------------5-------------|----------
6----|--11-----------------------3-----3---3---6-------------|----------
-----|---------------------------4-----4---4---6-------------|----------
-----|--6----6---6---6---6---6---4-----4---4---4-----4---4---|----------
     43                                                      44
 
                                                          
----------------------------------------------------------|-------------
2---------------------------------------------------------|-------------
1-------------1---1---1---1---1---1---1---1---1---1---1---|-------------
3-------------3---3---3---3---3---3---3---3---3---3---3---|-------------
4---------------------------------------------------------|-------------
----------------------------------------------------------|-------------
                                                          45
 
             
----------------------1-----------------------------------------|-------
2-----------------------------------4-------------2-------------|-------
1-------------1---1---1-----1---1---------1---1---1-----1---1---|-------
3-------------3---3---3-----3---3---6-----3---3---3-----3---3---|-------
4-----------------------------------8---------------------------|-------
----------------------------------------------------------------|-------
                                                                46
 
      
-------------2----------------------------------------|-----------------
1-----------------------------------------------------|--2--------------
1----1---1---1-----1----1---1----1---1----1---1---1---|--1--------------
1------------------1----0---1----1--------------------|--3--------------
-------------------------------------4----3---1-------|--4--------------
--------------------------------------------------4---|-----------------
                                                      47              
 
                              
--------1-----------------------------------------|---------------------
----------------------2-------------1-------------|--0------------------
1---1---1-----1---1---1-----1---1---1-----1---1---|--1----------1-------
3---3---3-----3---3---3-----3---3---3-----3---3---|--3----------3-------
--------------------------------------------------|---------------------
--------------------------------------------------|---------------------
                                                  48               
 
                                                            
----------------------------------------------|-------------------------
--------------------------------0-------------|--0----------------------
1---1---1-----1---1-----1---1---1-----1---1---|--1----------1---1-------
3---3---3-----0---3---------------------------|-------------------------
--------2-------------------------------------|-------------------------
1---4-----------------------------------------|-----------------1-------
                                              49                   
 
                                                                  
----------------------------------------|-------------------------------
--------------------------0-------------|-------------------------------
1---1---1---1-----1---1---1-----1---1---|--3----------------------------
--------0---3---------------------------|--3----------3---3---3---3-----
----2-----------------------------------|--1----------1---1---1---1-----
4---------------------------------------|-------------------------------
                                        50                           
 
                                                                
------------------------------|-----------------------------------------
------------------------------|-----------------------------------------
----------------3-------------|--2-----------------------------0--------
3---2---2---2---2-----2---2---|------------------3-------------2--------
1---3---3---3---3-----3---3---|----------3---3---------3---3---1--------
------------------------------|--1--------------------------------------
                              51                                      
 
                                                                    
----------------------|-------------------------------------------------
----------------------|--1----------------------------------------------
----------------------|-----------------------------------0-------------
--------2-------------|--3------------------3---------------------------
3---3---------3---3---|--0----------3---3---------3---3-----------3-----
----------------------|-----------------------------------0-------------
                      52                                             
 
                                                                    
------------------|------------------------------1-------------3--------
------------------|----------------1---------------------------0--------
----3-------------|--2-------------0-------------2----------------------
----5-------------|--3---------------------------------3---3---0--------
3---------3---3---|--------3---3---------3---3--------------------------
------------------|--1-------------0------------------------------------
                  53                                                
 
                                                                     
--------|---------------------------------------------------------------
--------|--1------------------------------------------------2-----------
--------|-------------0---0---------0---0-----------0---0---------0-----
3---3---|--2------------------2-------------2---------------2-----------
--------|--3--------------------------------3---------------------------
--------|---------------------------------------------------------------
        54                                                           
 
                                                                
----|-------------------------------------------------------------|-----
----|--3----------------------------------------------------------|-----
0---|----------0---0---------0---0---0----------------------2--3--|-----
----|--2---------------2-------------2-------------2--------------|-----
----|--1-------------------------------------3--3--------3-----3--|-----
----|--------------------------------3----------------------------|-----
    55                                                            56
 
                                                                 
--------------------------------------------------------|---------------
1-------------------------------------------------------|---------------
--------------------------------------------------------|--3------------
3-------------3-----------4-----------------------------|--0------------
0-------3--3--------3--3--3-------0---0---3-----0---0---|----------1----
--------------------------------------------------------|--3------------
                                                        57            
 
                                                           
-----------------------------------------------|------------------------
-----------------------------------------------|------------------------
------------------3-------2---0---0------------|--0---------------------
----0-------------2-------------------3----2---|--2---------------------
1---------1---1---3-------1---1---1---1----1---|--1-------3---3---------
-----------------------------------------------|--1---------------------
                                               58                
 
                                                                 
------------------------------------1---|--5----------------------------
--------------------------------1-------|----------1---1---------1------
----------------------------2-----------|-------------------------------
--------------3---------3---------------|--3---------------3------------
1-----3---3---0-----3-------------------|----------3---3---------3------
1-------------1-------------------------|--1----------------------------
                                        59                          
 
                                                                     
----3-----------------------------|--8----------------------------------
1-----------1---1---------1---1---|-------------1---1---------1---1-----
----------------------------------|-------------------------------------
----2---------------2-------------|---------------------3---------------
3---1-------3---3---------3---3---|--8----------------------------------
----------------------------------|--5----------------------------------
                                  60                                 
 
                                                                     
--------3---3---6-----3---3---|--5-----1---1---8-----3---3---13----5----
1-----------------------------|-----------------------------------------
----------------5-------------|--5--------------------------------------
2-----------------------------|--3-------------10------------15---------
------------------------------|-----------------------------------------
------------------------------|----------------12------------10---------
                              61                                      
 
                                                                   
5---15----7---7---|--8------------------0-------------0-----3---3-------
------------------|-------------8---8---------8---8---1-----------------
------------------|--9--------------------------------------------------
----15------------|-----------------------------------------------------
------------------|---------------------3-------------------------------
----10------------|--8--------------------------------------------------
                  62                                               
 
                                                                   
9-----3---3---|--10------3---3---0-------------3-------------1----------
--------------|------------------------1---1---5-----1---1---------1----
9-------------|--9-----------------------------3------------------------
--------------|---------------------------------------------------------
--------------|------------------1--------------------------------------
--------------|--6------------------------------------------------------
              63                                                      
 
                                                                   
5--6---|--8-------------------------------------------------------------
-------|--6------------------------------7------------------------------
---5---|----------5---5---5--------------5---------------5--------------
-------|--7---------------------7----7---0-------7---7---------7---7----
-------|----------------------------------------------------------------
-------|----------------------------------------------------------------
       64                                                             
 

|--6----------------------------6---5---3---3---1-------0---|-----------
|-----------------------------------------------------------|-----------
|-----------------------------------3---3-------3-------3---|-----------
|----------8---8--------8---8-------------------------------|-----------
|-----------------------------------3---3---3---3-------3---|-----------
|--3---------------8------------3---------------------------|-----------
65                                                          66
 
                                                                    
1------------------------------------------8---------9---|--10----------
---------------------------------------------------------|--------------
2--------------------------------------------------------|--------------
---------------------------------------------------------|--------------
-----------3---3---3---3---3---3---3---3---------3-------|--------------
1------------------------------------------8---------8---|--8----8------
                                                         67         
 
                                                                   
--------8---6---5-----------0---6---3--0---|-------3--5-----------------
--------------------8---6------------------|--6----6--------------------
-------------------------------------------|-------9-----5--------------
-------------------------------------------|----------------------------
----------------3-----------3----------3---|--0-------3--3----3---3-----
8---8---8---8-------8---8-------8----------|----------------------------
                                           68                        
 
                                                                
------------8---------9---|--10---------------8---6---------------0-----
--------------------------|---------------------------10--8---6---------
--------------------------|-------------------------------0-------------
------------10--------11--|--12---------------10--8---------------------
3---3---3---------3-------|---------------------------12--3---8---3-----
------------8---------8---|--8----8---8---8---8---8---8-------8---------
                          69                                         
 
                         
6---0---|--1------8--6-------5---6---10--8---6---|---------5--0---------
--------|------------5---------------------------|--10--------8---------
--------|------------5---------------------------|--10--------3---------
8-------|--3-------------------------------------|----------------------
----3---|--0-------------------------------------|--8---------3---------
8-------|--1-------------------------------------|----------------------
        70                                       71                  
 
                                                                 
2---3---6---5---3---|----------------------------------------|----------
--------------------|--6-------------------------------------|----------
--------------------|------------0-----------0---3---2---0---|----------
--------------------|--7------7--2-------4-------------------|--3-------
--------------------|--8---------1---------------------------|--0-------
--------------------|----------------------------------------|--1-------
                    72                                       73     
 
          
------------------------------------------------------------------------|e
------------------------------------------------------------------------|B
------------------------------------------------------------------------|G
3----3------------------------------------------------------------------|D
3----0------------------------------------------------------------------|A
1----1------------------------------------------------------------------|E
            
#==(o)

     
Добавлено: 27.09.2013
Другие материалы по этой песне:
  • Аккорды и текст

Страница создана 27.09.2013
http://primanota.ru/beethoven-ludwig-van/piano-sonata-op-13-chords.htm
Привет, Гость.
Предлагаем пройти революционный курс по гитаре.
Подарок от PrimaNota.Ru, забирай!