PrimaNota.ru - самый крупный в мире бесплатный архив песенных текстов, аккордов, табулатур и нот


Бетховен Людвиг ван - Moonlight Sonata - 3rd Movement - таба, видео

Регистрация Запомнить меня
Войти через:  Facebook Google Twitter Vk Yandex Mail.ru

Бетховен Людвиг ван - Moonlight Sonata - 3rd Movement - таба, видео

Печатать
Просмотров: 145
Уроки эстрадного вокала в Санкт-Петербурге
Beethoven's Moonlight Sonata
3rd Movement

with sweep picking & alternate picking throughout

e--------------------------------0-------5-
B------------------------1-----1-------5---
G----------------2-----2-----2-------5-----
D--------2-----2-----2-----2-------7-------
A----0-3---0-3-----3-----------------------
E--0---------------------------------------

e----------8----------12-12------------------
B-------10---------13-13-13------------------
G-----9---------14----14-14----------------1-
D--10--------14-------14-14--------2-----2---
A--------------------------------2-----2-----
E----------------------------0-4-----4-------

e----------------0-------4-------7----------
B--------0-----0-------5-------9---------12-
G------1-----1-------4-------9--------13----
D----2-----2-------6-------9-------14-------
A--2----------------------------------------
E-------------------------------------------

e--12-12------------------------0-------5-
B--12-12----------------2-----2-------5---
G--13-13--------2-----2-----2-------6-----
D--14-14------2-----2-----2-------7-------
A-----------4-----4-----------------------
E---------5-------------------------------

e----------9----------12----------17-17--
B-------10---------14----------17-17-17--
G-----9---------14----------18----18-18--
D--11--------14----------19-------19-19--
A----------------------------------------
E----------------------------------------

e---------------------------10-13-17-17--
B---------------------10-10-------15-15--
G------------------10-------------14-14--
D----0----------12-----------------------
A--0------12-12--------------------------
E------13--------------------------------

e----------------------------17-17--
B----------------10----13-16-16-16--
G------------5-8----14-------14-14--
D--------7-7------------------------
A--0---6----------------------------
E----8------------------------------

e--16-----12----12----12----12----12----12-
B--13--------------------------------12----
G--13--------------------13----14----------
D------14----14----16----------------------
A--15--------------------------------------
E------------------------------------------

e-----12----12----12----12----12----12----12-
B--------12----------15----13----12----------
G--13----------14----------------------14----
D--------------------------------------------
A--------------------------------------------
E--------------------------------------------

e-----12----11----12----12----12----12----12-
B--------------------------------------------
G--13----------------------------------13----
D--------15----14----14----14----16----------
A--------------------------------------------
E--------------------------------------------

e-----12----12----12----12----12----12----12-
B--------12----------12----------15----13----
G--14----------13----------14----------------
D--------------------------------------------
A--------------------------------------------
E--------------------------------------------

e-----12----12----12----11----12----11---12-
B--12---------------------------------------
G--------14----13-----------9----10----9----
D--------------------15---------------------
A-------------------------------------------
E-------------------------------------------

e-----11---12----11---12----11--12-------
B----------------------------------------
G--10----9----10----9----10-----9---9-9--
D----------------------------------------
A-----------------------------------7-7--
E-------------------------------0---0-0--

e--------------------------------0---------
B------------------------1-----1-----------
G----------------2-----2-----2-----------2-
D--------2-----2-----2-----2-----------2---
A----0-3---0-3-----3---------------0-3-----
E--0---------------------------------------

e------------------8--8--------------------
B--------1------10-10-10---------1-------4-
G------2------9----9--9--------2-------5---
D----2-----10------10-10-----1-------7-----
A--3-----------------------3-------6-------
E------------------------------------------

e--------5---------8-----------------------
B------4--------10----------------------10-
G----5--------8---------------8-------8----
D--7-------10--------------10------10------
A-----------------------12------12---------
E--------------------11--------------------

e----------8--8-----------------------------
B-------10-10-10---------0-----0-7-----7-10-
G-----8----8--8--------2--------------------
D--10------10-10-----4-------7-----7-9------
A------------------2-------9----------------
E-------------------------------------------

e----------------------14-------14-17-14----
B-------10-12----10-12----------------------
G----11-------11----------14-16----------16-
D--9----------------------------------------
A-------------------------------------------
E-------------------------------------------

e-----14--------------------------------
B----------------------0------------0---
G--14----16-14------0----0--------------
D--------------16----------2-2-1--1---1-
A---------------------------------------
E-------------------0--------2----------

e--------------------------------7--7--7--
B-----------0------------0-------0--0--0--
G-----------------0------------0----------
D--4--2---2---2-----4--4---4--------------
A-----------------6-----------------------
E--3---------------------------0----------

e----0--0-----------7-----2--0--0--0--7-0--
B--8-------4--4--4--0-----------------0----
G--0------------------8--------------------
D-------2--1--1--1--------4--2--2--2-------
A----7----------------6-----------------7--
E-------2-----------------3----------------

e--3--2--2--2--7-----------------------
B--------------0-7-------10---------8--
G-------------------13-------11--9--0--
D--5--4--4--4------------7-------------
A----------------9--11-------9---------
E--3----------------10---8---8------7--

e-----------------0----1-------------------
B------6---4---2-------1--------6-8-10-8-6-
G--9-------------------2--5-7-9------------
D------3---1------2----3-------------------
A--7---0---0-----------0-------------------
E--6--------------3------------------------

e------------------------------------------
B--------6-8-10-8-6-------6-8-10-8-6-------
G--5-7-9------------5-7-9------------5-7-9-
D------------------------------------------
A------------------------------------------
E------------------------------------------

e---------6-8-7-8-7-8-5------0--2--0--0--1--
B--6-8-10---------------8-6-----------1--1--
G-------------------------------------0--2--
D-------------------------------------2--3--
A-------------------------------2-----3--0--
E----------------------------7--------------

e----------------------------------------
B----------------------------------------
G----------------------------------------
D--------3-5-7-5-3-------3-5-7-5-3-------
A--3-5-7-----------3-5-7-0---------3-5-7-
E----------------------------------------

e--------------------------------------------
B--------------------------------------------
G--------------------------------------------
D--3-5-7-5-3-------3-5-7-5-3-------3-5-7-5-3-
A--0---------3-5-7-----0-----3-5-7-----0---0-
E--------------5---------------5-------------

e--------------------------5-6-7--8--0--------
B--------------------5-6-8--------------8-----
G--------------3-5-7-----------------------8--
D--------3-5-7--------------------------------
A--3-5-7--------------------------0-----------
E------------------------------------6--7--7--

e--------------------------------------------
B--------------------------------------------
G--------------------------------------------
D--------------------------9-9-9-9-9-9-9-9---
A--7-10-10-10-10-10-9-7--6-6-6-6-6-6-7-9-10--
E--0-7--7--7--7--7--7-7--7-------------------

e---------------------------------------------
B---------------------------------------------
G---------------------------------------------
D-----------------------9-9-9-9-9-9-9---9--9--
A--10-10-10-10-10-9-7-6-6-6-6-6-6-7-9---10-10-
E--7--7--7--7--7--7-7-7---------------0-------

e-----------------------------------
B-------------------0-0------0-0----
G-------------------0-0--0----------
D-------10-10-----------------------
A--10-0-12-12-12---------7---9-9-9--
E--12---------12--7--------7-----11-

e----3-3-3-3-3-2-0---8--8--8--8--8--7----
B----0-0-0-0-0-----4----------------0-10-
G--0-0-0-0-0-0-2-0---8--8--8--8--8--8-8--
D--2-----------4-2-1-10-10-10-10-10---7--
A----------------------------------------
E--0-------------------------------------

e---------------------8--8--8--8--8--7----
B--8--8-8-8-8-8-7-5------------------0-10-
G--0--0-0-0-0-0-----8-8--8--8--8--8--8-8--
D--10-9-9-9-9-9-7-5---10-10-10-10-10---7--
A---------------9-7-6---------------------
E-----------------------------------------

e----0-0-7---0--0--8----0-0-7-------7-
B----8-8-8---10-10-10---8-8-8---7-7-7-
G--0----------------------------8-8---
D-------------------------------------
A----------0------------------0-------
E---------------------7---------------

e----3-3-7-------5--------3-------2-
B----0-0-5---6-6------5-5-0---4-4---
G----------------5----0-0---------4-
D------------7-7--------------4-4---
A----------0----------------2-------
E--3----------------7---------------

e--0------------------------
B--------------0-0-0-----0--
G--0--0---------------------
D--------2--1--1-1-1-----2--
A--------------0-0-0--------
E--0--------0---------3--0--

e--3-0---7-7-7----7-----7-----7-----7--
B------4-4-4-4----5-----------5--------
G--------------0--------8-----------8--
D--------7-7-7--------7-----5-----7----
A--------------------------------------
E------0----------0-----0-----0-----0--

e----0---0---0---0---0---0---0---0-
B------0-------0-------0-------0---
G--0-------0-------0-------0-------
D----------------------------------
A----------------------------------
E----------------------------------

e-----------------------------------0----
B------0-------0-------0-------0----1----
G----7---7---7---7---7---7---7---7--2----
D--6-------6-------6-------6--------2----
A-----------------------------------0----
E----------------------------------------

That's all
Thank you for viewing


Добавлено: 13.06.2016
Другие материалы по этой песне:

Страница создана 19.06.2012
http://primanota.ru/beethoven-ludwig-van/moonlight-sonata-3rd-movement-chords.htm
Привет, Гость.
Предлагаем пройти революционный курс по гитаре.
Подарок от PrimaNota.Ru, забирай!