PrimaNota.ru - самый крупный в мире бесплатный архив песенных текстов, аккордов, табулатур и нот


Бетховен Людвиг ван - German Dance - таба, видео

Регистрация Запомнить меня
Войти через:  Facebook Google Twitter Vk Yandex Mail.ru

Бетховен Людвиг ван - German Dance - таба, видео

Печатать
Просмотров: 280
Уроки эстрадного вокала в Санкт-Петербурге
E-|---Song:-German-Dance---------------------------|
A-|---Author:-Ludwig-van-Beethoven-----------------|
D-|---Transcription-by:Christian Liang-------------|
G-|---E-Mail:christian.liang@gmail.com-------------|   
B-|---http://www.classclef.com---------------------|
E-|---Enjoy!---------------------------------------|


German Dance- Ludwig van Beethoven (1770-1827)

AABA

A

E-||---|--------------------|-----0---2---0------|---------------------|--------0----------|
B-||---|--2-----2-----2-----|--3--------------3--|--0-----0-----0------|-2--3-------3---2--|
G-||*--|--------------------|--------------------|---------------------|-------------------|
D-||*2-|--------------------|--------------------|---------------------|-------------------|
A-||---|--0-----0-----0-----|--2-----------------|---------------------|-0-----------------|
E-||---|--------------------|--------------------|--4-----4-----4------|-------------------|
RH   i    m     m     m        m  a   a   a   m     m     m     m        i  m   a   m   i
          p     p     p        p                    p     p     p        p
LH   2    3     3     3        3      2       3     4     4     4        1  2       2   1
                               1


E-|--------------------|--------------------|---------------------|----||
B-|-----0---2---0------|--0--2---3---2---0--|----------0----------|----||
G-|--2--------------2--|--------------------|--1---2-------2---1--|-2-*||
D-|--------------------|--0------4-------4--|----------0----------|---*||
A-|---------0-------0--|--------------------|---------------------|-0--||
E-|--2-----------------|--------------------|--0------------------|----||

RH   i  m   m   i   i     i  i   i   i   i     i   i   m   i   i    i
     p      p       p     p      p       p     p       p            p 
LH   1      2       1        2   2   1   3     1   2       2   1    2   
     T                           3
B

E-|---|--------------------|---------------------|--------------------|-------------------|
B-|---|--2-----0-----2-----|--3---0--------------|--2-----0-----2-----|--3--0-------------|
G-|---|--------------------|---------1-----1-----|--------------------|--------1-----1----|
D-|-2-|-----2-----2-----2--|------------2-----2--|-----2-----2-----2--|-----------2-----2-|
A-|---|--0-----------0-----|--2------------------|--0-----------0-----|--2----------------|
E-|---|--------4-----------|---------0-----------|--------4-----------|--------0----------|
RH  i    m  i  m  i  m  i     m   i  m  i  m  i     m  i  m  i  m  i     m   i  m  i  m  i
         p     p     p        p      p              p     p     p        p      p   
LH  1    2  1  4  1  2  1     4      1  3  1  3     2  1  4  1  2  1     4     1  3  1  3
                              2                                          2

     II...............    II            

E-|--------------------|--2-----4-----5-----|-----0-----------------|
B-|--5-----3-----5-----|--------------------|--2--------2--0--------|
G-|-----2-----2-----2--|-----2-----2-----2--|--------2--------1--2--|
D-|--------------------|--0-----2-----4-----|--2-----2--------------|
A-|--4-----2-----4-----|--------------------|--------------------0--|
E-|--------------------|--------------------|--------------0--------|

RH   m  i  m  i  m  i     m  i  m  i  m  i     m  a  i  m  m  i  i
     p     p     p        p     p     p        p     p     p     p
LH   3  1  2  1  3  1     1  1  4  1  4  1     3     2  3     1  2      
           1                    1     3        1     1

Добавлено: 10.03.2012
Другие материалы по этой песне:

Страница создана 29.02.2012
http://primanota.ru/beethoven-ludwig-van/german-dance-chords.htm
Привет, Гость.
Предлагаем пройти революционный курс по гитаре.
Подарок от PrimaNota.Ru, забирай!