PrimaNota.ru - самый крупный в мире бесплатный архив песенных текстов, аккордов, табулатур и нот


Бетховен Людвиг ван - Fur Elise Simple - таба, видео

Регистрация Запомнить меня
Войти через:  Facebook Google Twitter Vk Yandex Mail.ru

Бетховен Людвиг ван - Fur Elise Simple - таба, видео

Печатать
Просмотров: 221
Song: Fur Elise
Written by: Ludwig van Beethoven
tabbed by: Jocely J (jocelyfl@hotmail.com)

I saw the other version of "fur elise" and i thought it was kind of
complicated so i wrote out this one which seems easier to understand and
isn't as hard to play. the bass notes have been added to fill out the
sound of the song. these notes fall on the second beat and should be
allowed to sing until the next measure.

Medium Tempo

E-0--|-0---0------|--------|--------|-----0--|
B---4|---4---0-3-1|--------|-0-----0|-1-----4|
G----|------------|-2-----2|-----1--|--------|
D----|------------|-----2--|--------|--------|
A----|------------|---0----|--------|---0----|
E----|------------|--------|---0----|--------|

E-0---0------|--------|--------|-------|
B---4---0-3-1|--------|-0---1-0|---1-3-|
G------------|-2-----2|--------|-0-----|
D------------|-----2--|--------|-------|
A------------|---0----|--------|-------|
E------------|--------|---0----|-------|


E--0---1-0|-----0--|--------|-----|-0--|
B---------|-3-----3|-1---3-1|-0---|---4|
G----0----|---0----|--------|-----|----|
D---------|--------|--------|-----|----|
A---------|--------|---3----|-----|----|
E---------|--------|--------|---0-|----|

E-0---0------|--------|--------|-----0--|
B---4---0-3-1|--------|-0-----0|-1-----4|
G------------|-2-----2|-----1--|--------|
D------------|-----2--|--------|--------|
A------------|---0----|--------|---0----|
E------------|--------|---0----|--------|

E-0---0------|--------|--------|------|----0---|
B---4---0-3-1|--------|-0---1-0|------|----1---|
G------------|-2-----2|--------|-2----|----2---|
D------------|-----2--|--------|---2--|----2---|
A------------|---0----|--------|-----3|-0------|
E------------|--------|---0----|------|--------|

if you have any questions feel free to e-mail me. Jocelyfl@hotmail.com

     
Добавлено: 28.11.2013
Другие материалы по этой песне:
  • Аккорды и текст

Страница создана 23.11.2013
http://primanota.ru/beethoven-ludwig-van/fur-elise-simple-chords.htm
Привет, Гость.
Предлагаем пройти революционный курс по гитаре.
Подарок от PrimaNota.Ru, забирай!