PrimaNota.ru - самый крупный в мире бесплатный архив песенных текстов, аккордов, табулатур и нот


Бетховен Людвиг ван - Fur Elise - аккорды и текст, таба, бас-таба, видео

Регистрация Запомнить меня
Войти через:  Facebook Google Twitter Vk Yandex Mail.ru

Бетховен Людвиг ван - Fur Elise - аккорды и текст, таба, бас-таба, видео

Печатать
Просмотров: 1670
Fur Elise
Бетховен Людвиг ван
 |   |   |        |   |    |    |   |   |    |   |   |
E-|---------12-11|12-11-12-7-10-8|-5---------5|-7-----0-4-7|
B-|--------------|---------------|---------5--|------------|
G-|--------------|---------------|-------5----|------------|
D-|--------------|---------------|-----7------|-----6------|
A-|--------------|---------------|---7--------|---7--------|
E-|--------------|---------------|-5----------|-0----------|

                                  V...........
    |   |   |      |     |    |    |   |   |    |   |   |
E-|-8-----0-12-11|12-11-12-7-10-8|-5---------5|-7-------8-7|
B-|--------------|---------------|---------5--|-------5----|
G-|--------------|---------------|-------5----|------------|
D-|-----7--------|---------------|-----7------|-----6------|
A-|---7----------|---------------|---7--------|---7--------|
E-|-5------------|---------------|-5----------|-0----------|
  ___________________________
 |1 V...      ||2               VIII..mf....
    |   |   |    |   |   |      |   |   |      |   |   |
E-|-5---------||-5-----7-8-10||-12------13-12|10------12-10|
B-|-----------||-------------||--------8-----|-----0-------|
G-|----------@||-----2-------||@-------------|---0--10-----|
D-|-----7----@||---2---------||@----10-------|-------------|
A-|---7-------||-0-----------||---10---------|10-----------|
E-|-5---------||-------------||--8-----------|-------------|

   V.....       VII...p.....
    |   |   |    |   |   |    |    |     |     |     |     |
E-|-8------10-8|-7------12--|12H12H5-11-12-11|12-11-12-11-12-11|
B-|-------5----|------------|----------------|-----------------|
G-|------------|-----9-9---9|----------------|-----------------|
D-|-----7------|------------|----------------|-----------------|
A-|---7--------|---7--------|----------------|-----------------|
E-|-5----------|-0----------|----------------|-----------------|

                    V..........
    |     |   |     |   |    |   |   |   |    |   |   |     
E-|12-11-12-7-10-8|-5---------5|-7-----0---7|-8-----0-12-11|
B-|---------------|---------5--|---------9--|--------------|
G-|---------------|-------5----|------------|--------------|
D-|---------------|-----7------|-----6------|-----7--------|
A-|---------------|---7--------|---7--------|---7----------|
E-|---------------|-5----------|-0----------|-5------------|
                                              _____________
            pp      V..........              |1            |
    |     |    |    |   |   |    |   |   |    |   |   |   
E-|12-11-12-7-10-8|-5---------5|-7-------8-7|-5-----7-8-10||
B-|---------------|---------5--|-------5----|-------------||
G-|---------------|-------5----|------------|-----2------@||
D-|---------------|-----7------|-----6------|---2--------@||
A-|---------------|---7--------|---7--------|-0-----------||
E-|---------------|-5----------|-0----------|-------------||
   ____________ 
  |2           |
              I.....p........
    |   |   |     |   |   |     |   |   |     |   |   |
E-|-5----------|----------1--0|-0-------6--5|-5----------|
B-|-------1-1-1|--1-----------|-------------|---8-6-5----|
G-|-----2-----3|-2----2---2---|-----7---7---|---------7-5|
D-|---2---2-3-2|3---3---3---3-|---8---8---8-|------------|
A-|-0-----1-0-1|--------------|-8-----------|-8----------|
E-|-----------3|--1-----------|-------------|------------|

                      I..........
    |   |   |          |   |   |    |   |   |   
E-|------------------|------------|-0-----0-1--|
B-|------------------|-1-------3-4|-----1------|
G-|-3---2---3p2p0h2h3|---2---2---2|---2---2---2|
D-|-3----------------|------------|---------0--|
A-|---3---3-3--------|-----3---3--|------------|
E-|------------------|-1----------|-0----------|

                                   VIII.............I......
    |   |       |     |   |   |     |       |        |
E-|-----------------|--3-3-3-3-3-3|-----8--------------3p1--|
B-|-1---3p1p0h1-3--0|-1-----0-1-3-|---8--12-10-8-----3-----3|
G-|-----------------|---0-2-------|-9-----------10-9--------|
D-|---2-----2-----3-|-------------|-------------------------|
A-|-----------------|-3-----------|----------8-------2------|
E-|-3---3-------3---|-------------|-8-----------------------|

                 VIII.............I......
    |   |   |     |       |        |
E-|--3-3-3-3-3-3|-----8--------------3p1--|
B-|-1-----0-1-3-|---8--12-10-8-----3-----3|
G-|---0-2-------|-9-----------10-9--------|
D-|-------------|-------------------------|
A-|-3-----------|----------8-------2------|
E-|-------------|-8-----------------------|

   IV......................
    |       |       |        |   |   |    |   |   |
E-|------------------------|---------0--|-0-----H12--|
B-|-5-6-5-4-5---5-4-5---5-4|-5-----0----|-----H12----| 
G-|-4---------4-------4----|-----------8|----------A|*
D-|------------------------|------------|------------|
A-|------------------------|------------|------------|
E-|-4----------------------|------------|------------|

* A = artificial harmonic ...

Yep, just to be a real sadist I decided to place an 
artificial harmonic here.  Pluck the string with your 
ring finger whilst touching the string about 1 cm beyond 
the 19th fret with your index finger.
If you find it tough, wait till you scroll a couple of
pages down ;->

                                  V..........
     |   |   |      |   |    |    |   |   |    |   |   |
E-|H12-H12-H12--|12-11-12-7-10-8|-5---------5|-7-----0---7|
B-|-------------|---------------|---------5--|---------9--|
G-|---A--A--A|---------------|-------5----|------------|
D-|-------------|---------------|-----7------|-----6------|
A-|-------------|---------------|---7--------|---7--------|
E-|-------------|---------------|-5----------|-0----------|

                                   V.........
    |   |   |      |     |    |    |   |   |    |   |   |
E-|-8-----0-12-11|12-11-12-7-10-8|-5---------5|-7-------8-7|
B-|--------------|---------------|---------5--|-------5----|
G-|--------------|---------------|-------5----|------------|
D-|-----7--------|---------------|-----7------|-----6------|
A-|---7----------|---------------|---7--------|---7--------|
E-|-5------------|---------------|-5----------|-0----------|
          
                  VIII...mf...
    |   |   |      |   |   |      |   |   |
E-|-5-----7-8-10|12------13-12|10------12-10|
B-|-------------|-------8-----|-----0-------|
G-|-----2-------|-------------|---0--10-----|
D-|---2---------|----10-------|-------------|
A-|-0-----------|--10---------|10-----------|
E-|-------------|-8-----------|-------------|

   V........    VII...p.....                        pp
    |   |   |    |   |   |    |    |     |     |     |     |
E-|-8------10-8|-7------12--|12H12H5-11-12-11|12-11-12-11-12-11|
B-|-------5----|------------|----------------|-----------------|
G-|------------|-----9-9---9|----------------|-----------------|
D-|-----7------|------------|----------------|-----------------|
A-|---7--------|---7--------|----------------|-----------------|
E-|-5----------|-0----------|----------------|-----------------|

                    V..........
    |     |   |     |   |    |   |   |   |    |   |   |     
E-|12-11-12-7-10-8|-5---------5|-7-----0-4-7|-8-----0-12-11|
B-|---------------|---------5--|------------|--------------|
G-|---------------|-------5----|------------|--------------|
D-|---------------|-----7------|-----6------|-----7--------|
A-|---------------|---7--------|---7--------|---7----------|
E-|---------------|-5----------|-0----------|-5------------|

                    V..........              
    |     |    |    |   |   |    |   |   |   
E-|12-11-12-7-10-8|-5---------5|-7-------8-7|
B-|---------------|---------5--|-------5----|
G-|---------------|-------5----|------------|
D-|---------------|-----7------|-----6------|
A-|---------------|---7--------|---7--------|
E-|---------------|-5----------|-0----------|

     p                       X......XII.XIII..f.......
    |   |   |    |   |   |    |   |   |     |   |   |
E-|-5----------|-9----------|10------12-13|13------13--|
B-|------------|-8----------|10------14-15|15------15--|
G-|------------|-9----------|10-----------|13------13--|
D-|------------|-8----------|-------------|------------|
A-|---0---0---0|-0-0-0-0-0-0|-0-0-0-0-0--0|-0-0-0-0-0-0|
E-|-5---5---5--|------------|-------------|------------|

  XII.........  X......VII.. V.....   V......VII.....
    |   |   |    |   |   |    |   |   |    |   |   |
E-|12----------|10-------8-7|-5-------5--|-5---8---7--|
B-|13----------|------------|-7----------|------------|
G-|14----------|10-------9-7|-5-------5--|-5---9---7--|
D-|------------|-0-0-0-0-0-0|-7----------|------------|
A-|-0-0-0-0-0-0|-0-0-0-0-0-0|-6-6-6-6-6-6|-0-0-0-0-0-0|
E-|------------|------------|-5-5-5-5-5-5|-0-0-0-0-0-0|


     p                                      f
    |   |   |    |   |   |    |   |   |    |   |   |    
E-|-5----------|------------|---------0-1|-1-------1--|
B-|------------|-2----------|-3-------2-3|-3-------3--|
G-|-5----------|-0----------|-2----------|------------|
D-|------------|-2----------|-3----------|------------|
A-|---0---0---0|-0-0-0-0-0-0|-0-0-0-0-0-0|-0-0-0-0-0-0|
E-|-5---5---5--|------------|------------|------------|

   I...........           I.
    |   |   |    |   |   |    |   |   |    |   |   |
E-|-1----------|------------|------------|------------|
B-|-3----------|-4-------3-1|------------|------------|
G-|------------|-0----------|-3-------2--|-1-------1--|
D-|------------|---------3-1|-0-------0--|-0-------0--|
A-|-1-1-1-1-1-1|-1-1-1-1-1-1|-1-1-1-1-1-1|-2-2-2-2-2-2|
E-|------------|------------|------------|------------|

     p                         pp
    |   |   |    |   |   |    |     |     |
E-|------------|------------|-----------0------|
B-|------------|-0----------|---------1---3-1-0|
G-|-2----------|-1----------|-2-----2----------|
D-|-2----------|-0----------|-----2------------|
A-|-3----------|-2----------|-0h3---------0----|
E-|-5----------|-0----------|------------------|

   V.....                Now for the tricky bit...
    |     |       |      |        |     *   |       
E-|-------5-8-12-10-8-7|---8-H12-A5-A8-A-A10-A-A7|
B-|-----5--------------|10-------------------------|
G-|---5----------------|---------------------------|
D-|-7------------------|---------------------------|
A-|-0-------------0----|-0------------------0------|
E-|--------------------|---------------------------|

* this should be picked just to the right of the sound hole
(for right handers that is) and the high E should sound.
The exact position will vary depending on your guitar.
This can also be done leaving the left hand on the A (5th fret)
It is important to try and get the harmonics as loud and
as clear a possible.   
                            from here on it is not strictly
                         | necessary to use harmonics.
                         | instead you can go to the 11th
                         | fret high E string and continue
                         | the scale down from there.
                         v
    |        |        |        |       |         |
E-|A6-A5-A4-A-A-A-A------|--------------------------|
B-|---------------------A-A|A-A-A------------------|
G-|--------------------------|---------A-A-A-A------|
D-|--------------------------|---------------------A-A|
A-|-0------------------------|--------------------------|
E-|--------------------------|--------------------------|

     pp              V...........
    |   |   |    |    |   |   |    |   |   |
E-|-----------------|-5---------5|-7-----0-4-7|
B-|-----------------|---------5--|------------|
G-|-----------------|-------5----|------------|
D-|A-A-A----A---|-----7------|-----6------|
A-|---------A----A|---7--------|---7--------|
E-|-----------------|-5----------|-0----------|

                                   V.........
    |   |   |      |     |    |    |   |   |    |   |   |
E-|-8-----0-12-11|12-11-12-7-10-8|-5---------5|-7-------8-7|
B-|--------------|---------------|---------5--|-------5----|
G-|--------------|---------------|-------5----|------------|
D-|-----7--------|---------------|-----7------|-----6------|
A-|---7----------|---------------|---7--------|---7--------|
E-|-5------------|---------------|-5----------|-0----------|
          
                  VIII........
    |   |   |      |   |   |      |   |   |
E-|-5-----7-8-10|12------13-12|10------12-10|
B-|-------------|-------8-----|-----0-------|
G-|-----2-------|-------------|---0--10-----|
D-|---2---------|----10-------|-------------|
A-|-0-----------|--10---------|10-----------|
E-|-------------|-8-----------|-------------|

   V.....       VII..p......
    |   |   |    |   |   |    |    |     |     |     |     |
E-|-8------10-8|-7------12--|12H12H5-11-12-11|12-11-12-11-12-11|
B-|-------5----|------------|----------------|-----------------|
G-|------------|-----9-9---9|----------------|-----------------|
D-|-----7------|------------|----------------|-----------------|
A-|---7--------|---7--------|----------------|-----------------|
E-|-5----------|-0----------|----------------|-----------------|

                    V..........                        pp
    |     |   |     |   |    |   |   |   |    |   |   |     
E-|12-11-12-7-10-8|-5---------5|-7-----0-4-7|-8-----0-12-11|
B-|---------------|---------5--|------------|--------------|
G-|---------------|-------5----|------------|--------------|
D-|---------------|-----7------|-----6------|-----7--------|
A-|---------------|---7--------|---7--------|---7----------|
E-|---------------|-5----------|-0----------|-5------------|

                    V..........             
    |     |    |    |   |   |    |   |   |    |   |   |
E-|12-11-12-7-10-8|-5---------5|-7-------8-7|-5----------|
B-|---------------|---------5--|------------|-------The--|
G-|---------------|-------5----|-------7----|-5----------|
D-|---------------|-----7------|-----6------|-------End--|
A-|---------------|---7--------|---7--------|-0----------|
E-|---------------|-5----------|-0----------|------------|
Добавлено: 05.07.2012
Другие материалы по этой песне:

Страница создана 28.02.2012
http://primanota.ru/beethoven-ludwig-van/fur-elise-chords.htm
Привет, Гость.
Предлагаем пройти революционный курс по гитаре.
Подарок от PrimaNota.Ru, забирай!