PrimaNota.ru - самый крупный в мире бесплатный архив песенных текстов, аккордов, табулатур и нот


Бетховен Людвиг ван - F?r Elise - таба, видео

Регистрация Запомнить меня
Войти через:  Facebook Google Twitter Vk Yandex Mail.ru

Бетховен Людвиг ван - F?r Elise - таба, видео

Печатать
Просмотров: 230
Уроки эстрадного вокала в Санкт-Петербурге
* Ludwig van Beethoven : F?r Elise (Beethoven)
  --------------------------------                                                                

                              Am               E
E |--0----|------0----------|----------------|----------------|
B |-----4h|5--4-----0--3p1--|----------------|--0----------0--|
G |-------|-----------------|--2----------2--|-------1---1----|
D |-------|-----------------|-------2---2----|-----2---2------|
A |-------|-----------------|--0--3---3------|----------------|
E |-------|-----------------|----------------|--0-------------|

     Am                                 Am                E
E |------------0----|------0---------|-----------------|----------------|
B |--1------------4h|5--4-----0-3p1--|-----------------|--0--------1p0--|
G |-------2---------|----------------|--2----------2---|-------1--------|
D |-----2---2-------|----------------|-------2---2-----|-----2---2------|
A |--0--------------|----------------|--0--3---3-------|----------------|
E |-----------------|----------------|-----------------|--0-------------|

  (1)               (2)
     Am                Am
E |-----------0----||-------------------||
B |--------------4h||-------------1--3--||
G |--2-------------||--2--------0-------||
D |-----2----------||-----2-------------||
A |--0-----0-------||--0-----0----------||
E |----------------||-------------------||

     C                G                Am               Em
E |--0--------1p0--|-----------0----|----------------|-----------0----|
B |-------1--------|--3----------3--|--1--------3p1--|--0-------------|
G |-----0---0------|-------0--------|-------2--------|----------------|
D |----------------|-----0---3------|-----2---2------|-------2-2---2--|
A |--3-------------|----------------|--0-------------|-----2----------|
E |----------------|--3-------------|----------------|--0-------------|


E |--0-----12---------|---------------|------0----------|
B |-------------------|--------4h5--4h|5--4-----0--3p1--|
G |-----9------8h9--8h|9--8h9---------|-----------------|
D |-------------------|---------------|-----------------|
A |-------------------|---------------|-----------------|
E |-------------------|---------------|-----------------|

     Am               E                Am
E |----------------|----------------|------------0----|------0---------|
B |----------------|--0----------0--|--1------------4h|5--4-----0-3p1--|
G |--2----------2--|-------1---1----|-------2---------|----------------|
D |-------2---2----|-----2---2------|-----2---2-------|----------------|
A |--0--3---3------|----------------|--0--------------|----------------|
E |----------------|--0-------------|-----------------|----------------|

     Am               E                 Am
E |----------------|-----------------|---------||
B |----------------|--0---------1p0--|---------||
G |--2----------2--|-------1---------|--2------||
D |-------2---2----|-----2---2-------|---------||
A |--0--3---3------|-----------------|--0------||
E |----------------|--0--------------|---------||



*******************************************************************************

                                           Keep rockin !

                                           Max ( Max_Guitarplayer@hotmail.com )

*******************************************************************************
Добавлено: 16.07.2013
Другие материалы по этой песне:

Страница создана 25.07.2012
http://primanota.ru/beethoven-ludwig-van/fr-elise-chords.htm
Привет, Гость.
Предлагаем пройти революционный курс по гитаре.
Подарок от PrimaNota.Ru, забирай!