PrimaNota.ru - самый крупный в мире бесплатный архив песенных текстов, аккордов, табулатур и нот


Beecher - Only One I Know - бас-таба, видео

Регистрация Запомнить меня
Войти через:  Facebook Google Twitter Vk Yandex Mail.ru

Beecher - Only One I Know - бас-таба, видео

Печатать
Просмотров: 135
Band: Beecher
Song: The Only One I Know
Album: Breaking The Fourth Wall
Tabbed by: choke383
Normal Tuning: GDADb


0:02
G |--6--6--6--6--6---9--9--9--9--9----11---11---11---11---11---6--6--6--6--6--|
D |-6--6--6--6--6---9--9--9--9--9---11---11---11---11---11----6--6--6--6--6---|
A |4--4--4--4--4--47--7--7--7--7--79----9----9----9----9----94--4--4--4--4----|
Db|---------------------------------------------------------------------------|

G |------------------------------------------------------------------|
D |------------------------------------------------------------------|
A |4-4-4-4-4-4-4-4-7-7-7-7-7-7-7-7-9-9-9-9-9-9-9-9-4-4-4-4-----------|
Db|--------------------------------------------------------00000000--|


0:23
G |----------------------------------------------|
D |--------00------------------00----------0000--|
A |---4\--------4\---00---4\--------4\---00------|
Db|000--033--000--033--000--033--000--033--------|

G |------------------------------------------|
D |--------00------------------00------------|
A |---4\--------4\---00---4\--------4\---00--|
Db|000--033--000--033--000--033--000--033----|

G |-----------------------------------------------|
D |--------00------------------00-----------------|
A |---4\--------4\---00---4\--------4\---005555\--|
Db|000--033--000--033--000--033--000--033---------|


0:44
G |---------------------------------------------------------|
D |-------------------------------11111111111---------------|
A |------------------------------------------------0000000--|
Db|2-2-----------2-2-----------2-2-----------202020---------|


0:54
G |--------------------------------------------------------------------------|
D |--------------------------------------------------------------------------|
A |---------------------4-------------------------------4--------------------|
Db|44444444444447-4-4444--3-333333344444444444447-4-4444--3-333333333333333--|


1:05
G |-----------------------------------------------------------------|
D |-----------------------------------------------------------------|
A |--------------------------------1-1-1-1-1-1-1-1-2-2-2-2-2-2-2-2--|
Db|5-5-5-5-5-5-5-5-2-2-2-2-2-2-2-2----------------------------------|x2


1:26
G |-----------------------------------------------|
D |----------76----------------------76-----------|
A |/5-5-05-5---5-2--2--2-----/5-5-05---5-2--2--2--|
Db|-----------------------------------------------|


1:39
G |----------------------------------------------|
D |--------00------------------00----------0000--|
A |---4\--------4\---00---4\--------4\---00------|
Db|000--033--000--033--000--033--000--033--------|

G |------------------------------------------|
D |--------00------------------00------------|
A |---4\--------4\---00---4\--------4\---00--|
Db|000--033--000--033--000--033--000--033----|

G |------------------------------------------------|
D |--------00------------------00------------------|
A |---4\--------4\---00---4\--------4\---00000000--|
Db|000--033--000--033--000--033--000--033----------|


2:00
G |-------------------------------------------------------------------|
D |--------------------------------------7~---------------------------|
A |--7------------------4~-------------7------------------4~----------|
Db|8---8~-----------5-5--------------8----------------5-5-------4/5~--|


2:21
G |---------------------------------------------------------------------|
D |---------------------------------------------------------------------|
A |0-0-0-0--0-0~----4-4-4-4--4-4~----0-0-0-0--0-0~----4-4-4-4--4-4~-----|
Db|---------------------------------------------------------------------|x2


2:41
G |---------------------------------------------------------|
D |-------------------------------11111111111---------------|
A |------------------------------------------------0000000--|
Db|2-2-----------2-2-----------2-2-----------202020---------|


2:51
G |--------------------------------------------------------------------------|
D |--------------------------------------------------------------------------|
A |---------------------4-------------------------------4--------------------|
Db|44444444444447-4-4444--3-333333344444444444447-4-4444--3-333333333333333--|


3:02
G |-----------------------------------------------------------------|
D |-----------------------------------------------------------------|
A |--------------------------------1-1-1-1-1-1-1-1-2-2-2-2-2-2-2-2--|
Db|5-5-5-5-5-5-5-5-2-2-2-2-2-2-2-2----------------------------------|

G |------------------------------------------------------------------|
D |------------------------------------------------------------------|
A |--------------------------------11111111111111112222222222222222--|
Db|55555555555555552222222222222222----------------------------------|


3:23
G |---------------------------------------------------|
D |----------76---------------------653-653-----------|
A |/5-5-05-5---5-2--2--2-----/5-5-05---0---0-2--2--2--|
Db|---------------------------------------------------|x2

G |----------------------|
D |------------5---5-----|
A |0--0--0-------5---3~--|
Db|----------------------|



Any comments, questions or jokes send to style444@hotmail.com
Добавлено: 17.04.2012
Другие материалы по этой песне:
  • Аккорды и текст

Страница создана 17.04.2012
http://primanota.ru/beecher/only-one-i-know-chords.htm
Привет, Гость.
Предлагаем пройти революционный курс по гитаре.
Подарок от PrimaNota.Ru, забирай!