PrimaNota.ru - самый крупный в мире бесплатный архив песенных текстов, аккордов, табулатур и нот


Beecher - Knight The Arsonist - таба, видео

Регистрация Запомнить меня
Войти через:  Facebook Google Twitter Vk Yandex Mail.ru

Beecher - Knight The Arsonist - таба, видео

Печатать
Просмотров: 93
 4/4
  Gtr I
      PM   PM      PM    PM              PM   PM      PM    PM
|----------------|-----------------|----------------|-----------------|
|----------------|-----------------|----------------|-----------------|
|----------------|-----------------|----------------|-----------------|
|-10----9--------|---------7s9-7s9-|-10----9--------|---------7s9-7s9-|
|--8----7----5s6-|---5s6---5s7-5s7-|--8----7----5s6-|---5s6---5s7-5s7-|
|-----0----0-3s4-|-0-3s4-0---------|-----0----0-3s4-|-0-3s4-0---------|
|
| Gtr II
|     PM   PM      PM    PM              PM   PM      PM    PM
|----------------|-----------------|----------------|-----------------|
|----------------|-----------------|----------------|-----------------|
|----------------|-----------------|----------------|-----------------|
|-10----9--------|---------7s9-7s9-|-10----9--------|---------7s9-7s9-|
|--8----7----5s6-|---5s6---5s7-5s7-|--8----7----5s6-|---5s6---5s7-5s7-|
|-----0----0-3s4-|-0-3s4-0---------|-----0----0-3s4-|-0-3s4-0---------|


 4/4
      PM   PM      PM    PM
|----------------|-----------------|-------------|-------------|
|----------------|-----------------|-------------|-------------|
|----------------|-----------------|-10---9------|-------------|
|-10----9--------|---------7s9-7s9-|----------5--|-(5)-6-------|
|--8----7----5s6-|---5s6---5s7-5s7-|--8---7------|-------------|
|-----0----0-3s4-|-0-3s4-0---------|----------3--|-(3)-4-------|
|
|     PM   PM      PM    PM
|----------------|-----------------|-------------|-------------|
|----------------|-----------------|--9---9------|-------------|
|----------------|-----------------|----------4--|-(4)-4-------|
|-10----9--------|---------7s9-7s9-|--6---6------|-------------|
|--8----7----5s6-|---5s6---5s7-5s7-|----------2--|-(2)-2-------|
|-----0----0-3s4-|-0-3s4-0---------|-------------|-------------|


 7/8
|---------------------|---------------------|
|---------------------|---------------------|
|-11-11-11-11-11-10-9-|-11-11-11-11-11-10-9-|
|---------------------|---------------------|
|--9--9--9--9--9--8-7-|--9--9--9--9--9--8-7-|
|---------------------|---------------------|
|
|---------------------|---------------------|
|---------------------|---------------------|
|-11-11-11-11-11-10-9-|-11-11-11-11-11-10-9-|
|---------------------|---------------------|
|--9--9--9--9--9--8-7-|--9--9--9--9--9--8-7-|
|---------------------|---------------------|


|---------------------|----------------------|
|---------------------|----------------------|
|-11-11-11-11-11-10-9-|-11-11-11-11-11-10-9--|
|---------------------|----------------------|
|--9--9--9--9--9--8-7-|--9--9--9--9--9--8-7--|
|---------------------|----------------------|
|
|---------------------|----------------------|
|---------------------|----------------------|
|-11-11-11-11-11-10-9-|-11-11-11-11-11-10-9--|
|---------------------|----------------------|
|--9--9--9--9--9--8-7-|--9--9--9--9--9--8-7--|
|---------------------|----------------------|



|---------------------|---------------------|
|---------------------|---------------------|
|-11-11-11-11-11-10-9-|-11-11-11-11-11-10-9-|
|---------------------|---------------------|
|--9--9--9--9--9--8-7-|--9--9--9--9--9--8-7-|
|---------------------|---------------------|
|
|---------------------|---------------------|
|---------------------|---------------------|
|---------------------|---------------------|
|---------------------|---------------------|
|---------------------|---------------------|
|--2--0--2--0--2--1-0-|--2--0--2--0--2--1-0-|


                       6/8
|---------------------|-------------------|
|---------------------|-------------------|
|-11-11-11-11-11-10-9-|-11-11-11-11-11-11-|
|---------------------|-------------------|
|--9--9--9--9--9--8-7-|--9--9--9--9--9--9-|
|---------------------|-------------------|
|
|---------------------|-------------------|
|---------------------|-------------------|
|---------------------|-------------------|
|---------------------|-------------------|
|---------------------|-------------------|
|--2--0--2--0--2--1-0-|--2--0--2--0--2--2-|


 4/4           7/8
|-----------||----------------|----------------||
|-----------||o---------------|---------------o||
|-----------||----------------|----------------||
|-7----2----||----------------|----------------||
|-7----2----||o-6p0-6p0-6p5p4-|-6p0-6p0-6p5p4-o||
|-5----0----||----------------|----------------||
|
|-----------||----------------|----------------||
|-----------||o---------------|---------------o||
|-----------||----------------|----------------||
|-7----2----||----------------|----------------||
|-7----2----||o-6p0-6p0-6p5p4-|-6p0-6p0-6p5p4-o||
|-5----0----||----------------|----------------||


                                                 6/8
|  PM--------------------------------------------------------|
|---------------|---------------|---------------|-------------|
|---------------|---------------|---------------|-------------|
|---------------|---------------|---------------|-------------|
|---------------|---------------|---------------|-------------|
|-6-0-6-0-6-5-4-|-6-0-6-0-6-5-4-|-6-0-6-0-6-5-4-|-6-0-6-0-6-6-|
|---------------|---------------|---------------|-------------|
|
| PM--------------------------------------------------------|
|---------------|---------------|---------------|-------------|
|---------------|---------------|---------------|-------------|
|---------------|---------------|---------------|-------------|
|---------------|---------------|---------------|-------------|
|-6-0-6-0-6-5-4-|-6-0-6-0-6-5-4-|-6-0-6-0-6-5-4-|-6-0-6-0-6-6-|
|---------------|---------------|---------------|-------------|


 
 4/4
                 PM--------------------------------------------|
|-----------|----------------|-----------------|-----------------|
|-----------|----------------|-----------------|-----------------|
|-----------|----------------|-----------------|-----------------|
|-5----8----|-2--------------|-----------------|-----------------|
|-5----8----|-2--2-2-2-2-2-2-|-2-2-2-2-2-2-2-2-|-2-2-2-2-2-2-2-2-|
|-3----6----|-0--0-0-0-0-0-0-|-0-0-0-0-0-0-0-0-|-0-0-0-0-0-0-0-0-|
|
|                PM--------------------------------------------|
|-----------|----------------|-----------------|-----------------|
|-----------|----------------|-----------------|-----------------|
|-----------|----------------|-----------------|-----------------|
|-5----8----|-2--------------|-----------------|-----------------|
|-5----8----|-2--2-2-2-2-2-2-|-2-2-2-2-2-2-2-2-|-2-2-2-2-2-2-2-2-|
|-3----6----|-0--0-0-0-0-0-0-|-0-0-0-0-0-0-0-0-|-0-0-0-0-0-0-0-0-|


                   Bridge
                    
                   7/8
  PM------------|
|-----------------|---------------|
|-----------------|---------------|
|-----------------|---------------|
|-----------------|---------------|
|-2-2-2-2-2-2-2-2-|---------------|
|-0-0-0-0-0-0-0-0-|-6p0h6p0h6h7h9-|
|
| PM------------|
|-----------------|---------------|
|-----------------|---------------|
|-----------------|---------------|
|-----------------|---------------|
|-2-2-2-2-2-2-2-2-|---------------|
|-0-0-0-0-0-0-0-0-|-6p0h6p0h6h7h9-|


|---------------|---------------|---------------|
|---------------|---------------|---------------|
|---------------|---------------|---------------|
|---------------|---------------|---------------|
|---------------|---------------|---------------|
|-6p0h6p0h6h7h9-|-6p0h6p0h6h7h9-|-6p0h6p0h6h7h9-|
|
|---------------|---------------|---------------|
|---------------|---------------|---------------|
|---------------|---------------|---------------|
|---------------|---------------|---------------|
|---------------|---------------|---------------|
|-6p0h6p0h6h7h9-|-6p0h6p0h6h7h9-|-6p0h6p0h6h7h9-|


 4/4
      PM   PM      PM    PM              PM   PM      PM    PM
|----------------|-----------------|----------------|-----------------|
|----------------|-----------------|----------------|-----------------|
|----------------|-----------------|----------------|-----------------|
|-10----9--------|---------7s9-7s9-|-10----9--------|---------7s9-7s9-|
|--8----7----5s6-|---5s6---5s7-5s7-|--8----7----5s6-|---5s6---5s7-5s7-|
|-----0----0-3s4-|-0-3s4-0---------|-----0----0-3s4-|-0-3s4-0---------|
|
|     PM   PM      PM    PM              PM   PM      PM    PM
|----------------|-----------------|----------------|-----------------|
|----------------|-----------------|----------------|-----------------|
|----------------|-----------------|----------------|-----------------|
|-10----9--------|---------7s9-7s9-|-10----9--------|---------7s9-7s9-|
|--8----7----5s6-|---5s6---5s7-5s7-|--8----7----5s6-|---5s6---5s7-5s7-|
|-----0----0-3s4-|-0-3s4-0---------|-----0----0-3s4-|-0-3s4-0---------|


  
      PM   PM      PM    PM              PM   PM      PM    PM
|----------------|-----------------|----------------|---------------|
|----------------|-----------------|----------------|---------------|
|----------------|-----------------|----------------|---------------|
|-10----9--------|---------7s9-7s9-|-10----9--------|---------7--9--|
|--8----7----5s6-|---5s6---5s7-5s7-|--8----7----5s6-|---5s6---5--7--|
|-----0----0-3s4-|-0-3s4-0---------|-----0----0-3s4-|-0-3s4-0-------|
|
|     PM   PM      PM    PM              PM   PM      PM    PM
|----------------|-----------------|----------------|---------------|
|----------------|-----------------|----------------|---------------|
|----------------|-----------------|----------------|---------------|
|-10----9--------|---------7s9-7s9-|-10----9--------|---------7--9--|
|--8----7----5s6-|---5s6---5s7-5s7-|--8----7----5s6-|---5s6---5--7--|
|-----0----0-3s4-|-0-3s4-0---------|-----0----0-3s4-|-0-3s4-0-------|



  Gtr III
        PM--------------------|              PM--------------------|
|---------------|-----------------|------------------|------------------|
|---------------|-----------------|------------------|----------------7-|
|-9\------------|---------------9-|-(9)-9\-----------|---------------11-|
|-9\------------|---------------9-|-(9)-9\-----------|----------------9-|
|-7\------------|---------------7-|-(7)-7\-----------|----------------7-|
|-------0-0-0-0-|-0-0-0-0-0-0-0---|----------0-0-0-0-|-0-0-0-0-0-0-0----|
|
| Gtr IV
|       PM--------------------|              PM--------------------|
|---------------|-----------------|------------------|------------------|
|---------------|-----------------|------------------|------------------|
|-9\------------|---------------9-|-(9)-9\-----------|----------------9-|
|-9\------------|---------------9-|-(9)-9\-----------|----------------9-|
|-7\------------|---------------7-|-(7)-7\-----------|----------------7-|
|-------0-0-0-0-|-0-0-0-0-0-0-0---|----------0-0-0-0-|-0-0-0-0-0-0-0----|


 4/4
|-------------------|--------------------|
|--(7)--------------|--(7)---------------|
|-(11)--------------|-(11)---------------|
|--(9)--------------|--(9)---------------|
|--(7)--------------|--(7)---------------|
|-------------------|--------------------|
|
|         PM----|       PM-----------|
|-------------------|--------------------|
|-------------------|--------------------|
|--(9)\-------------|------------------9-|
|--(9)\-------------|------------------9-|
|--(7)\-------------|------------------7-|
|---------0-0-0-0-0-|---0--0-0-0-0-0-0---|


|--7-----------------|--7\----------------|
|--------7-----------|--7\----------------|
|-----------11-------|-11\----------------|
|----------------9---|-(9)\---------------|
|--------------------|--7\----------------|
|--------------------|--------------------|
|
|            PM-------------------------|
|--------------------|--------------------|
|--------------------|--------------------|
|-(9)-9\-------------|--------------------|
|-(9)-9\-------------|--------------------|
|-(7)-7\-------------|--------------------|
|------------0-0-0-0-|--0---0-0-0-0-0-0-0-|


  
 7/8                                     4/4
   PM---------------------------------|         PM--------------------|
|-------------------|-------------------|---------------|------------------|
|-------------------|-------------------|---------------|------------------|
|-------------------|-------------------|-9\------------|---------------9--|
|-------------------|-------------------|-9\------------|---------------9--|
|-------------------|-------------------|-7\------------|---------------7--|
|-12-0-12-0-12-10-0-|-12-0-12-0-12-10-0-|-------0-0-0-0-|-0-0-0-0-0-0-0----|
|
|  PM---------------------------------|         PM--------------------|
|-------------------|-------------------|---------------|------------------|
|-------------------|-------------------|---------------|------------------|
|-------------------|-------------------|-9\------------|---------------9--|
|-------------------|-------------------|-9\------------|---------------9--|
|-------------------|-------------------|-7\------------|---------------7--|
|-12-0-12-0-12-10-0-|-12-0-12-0-12-10-0-|-------0-0-0-0-|-0-0-0-0-0-0-0----|


           
           PM--------------------|
|------------------|------------------|-------------------|--------------------|
|------------------|----------------7-|--(7)--------------|--(7)---------------|
|-(9)-9\-----------|---------------11-|-(11)--------------|-(11)---------------|
|-(9)-9\-----------|----------------9-|--(9)--------------|--(9)---------------|
|-(7)-7\-----------|----------------7-|--(7)--------------|--(7)---------------|
|----------0-0-0-0-|-0-0-0-0-0-0-0----|-------------------|--------------------|
|
|          PM--------------------|              PM----|       PM-----------|
|------------------|------------------|-------------------|--------------------|
|------------------|------------------|-------------------|--------------------|
|-(9)-9\-----------|----------------9-|--(9)\-------------|------------------9-|
|-(9)-9\-----------|----------------9-|--(9)\-------------|------------------9-|
|-(7)-7\-----------|----------------7-|--(7)\-------------|------------------7-|
|----------0-0-0-0-|-0-0-0-0-0-0-0----|---------0-0-0-0-0-|---0--0-0-0-0-0-0---|


|--7-----------------|--7\---------------|
|--------7-----------|--7\---------------|
|-----------11-------|-11\---------------|
|----------------9---|--9\---------------|
|--------------------|--7\---------------|
|--------------------|-------------------|
|
|            PM---------------------------
|--------------------|-------------------|
|--------------------|-------------------|
|-(9)-9\-------------|-------------------|
|-(9)-9\-------------|-------------------|
|-(7)-7\-------------|-------------------|
|------------0-0-0-0-|--0--0-0-0-0-0-0-0-|



 7/8
   PM---------------------------------|
|-------------------|--------------------|
|-------------------|--------------------|
|-------------------|--------------------|
|-------------------|--------------------|
|-------------------|--------------------|
|-12-0-12-0-12-10-0-|-12-0-12-0-12-10-0--|
|
|-------------------------------------|
|-------------------|--------------------|
|-------------------|--------------------|
|-------------------|--------------------|
|-------------------|--------------------|
|-------------------|--------------------|
|-12-0-12-0-12-10-0-|-12-0-12-0-12-10-0--|


                                      
                                         4/4
   PM---------------------------------|
|-------------------|-------------------|----------------|------------------|
|-------------------|-------------------|----------------|------------------|
|-------------------|-------------------|-9\---x-x-x-x-x-|-x-x-x-x-x-x-x-9--|
|-------------------|-------------------|-9\---x-x-x-x-x-|-x-x-x-x-x-x-x-9--|
|-------------------|-------------------|-7\---x-x-x-x-x-|-x-x-x-x-x-x-x-7--|
|-12-0-12-0-12-10-0-|-12-0-12-0-12-10-0-|------x-x-x-x-x-|-x-x-x-x-x-x-x----|
|
|  PM---------------------------------|        PM----|     PM----------|
|-------------------|-------------------|----------------|------------------|
|-------------------|-------------------|----------------|------------------|
|-------------------|-------------------|-9\-------------|---------------9--|
|-------------------|-------------------|-9\-------------|---------------9--|
|-------------------|-------------------|-7\-------------|---------------7--|
|-12-0-12-0-12-10-0-|-12-0-12-0-12-10-0-|------0-0-0-0-0-|-0-0-0-0-0-0-0----|


           PM--------------------|             PM--------------------|
|------------------|-----------------|-----------------|-----------------|
|------------------|-----------------|-----------------|-----------------|
|-(9)-9\---x-x-x-x-|-x-x-x-x-x-x-x-9-|-(9)/----x-x-x-x-|-x-x-x-x-x-x-x-9-|
|-(9)-9\---x-x-x-x-|-x-x-x-x-x-x-x-9-|-(9)/----x-x-x-x-|-x-x-x-x-x-x-x-9-|
|-(7)-7\---x-x-x-x-|-x-x-x-x-x-x-x-7-|-(7)/----x-x-x-x-|-x-x-x-x-x-x-x-7-|
|----------x-x-x-x-|-x-x-x-x-x-x-x---|---------x-x-x-x-|-x-x-x-x-x-x-x---|
|
|          PM--------------------|             PM--|     PM----------|
|------------------|-----------------|-----------------|-----------------|
|------------------|-----------------|-----------------|-----------------|
|-(9)-9\-----------|---------------9-|-(9)-------------|---------------9-|
|-(9)-9\-----------|---------------9-|-(9)-------------|---------------9-|
|-(7)-7\-----------|---------------7-|-(7)-------------|---------------7-|
|----------0-0-0-0-|-0-0-0-0-0-0-0---|---------0-0-0-0-|-0-0-0-0-0-0-0---|



                                      7/8
                                   Gtr I
           PM--------------|
                                                                       3x
|------------------|---------------||----------------|-----------------||
|------------------|---------------||o---------------|----------------o||
|-(9)-9\---x-x-x-x-|-x-x-x-x-9-9---||----------------|-----------------||
|-(9)-9\---x-x-x-x-|-x-x-x-x-9-9---||----------------|-----------------||
|-(7)-7\---x-x-x-x-|-x-x-x-x-7-7---||o-6p0-6p0-6-5-4-|-6p0-6p0-6-5-4--o||
|----------x-x-x-x-|-x-x-x-x-------||----------------|-----------------||
|
|                                  Gtr II
|          PM--------------|
|                                                                      3x
|------------------|---------------||----------------|-----------------||
|------------------|---------------||o---------------|----------------o||
|-(9)-9\-----------|---------9-9---||----------------|-----------------||
|-(9)-9\-----------|---------9-9---||----------------|-----------------||
|-(7)-7\-----------|---------7-7---||o-6p0-6p0-6-5-4-|-6p0-6p0-6-5-4--o||
|----------0-0-0-0-|-0-0-0-0-------||----------------|-----------------||


                 6/8           2/4    4/4
                                          PM--------|
|---------------|-------------|------|----------------|
|---------------|-------------|------|----------------|
|---------------|-------------|------|----------------|
|---------------|-------------|-5----|-2--------------|
|-6p0-6p0-6-5-4-|-6p0-6p0-6-6-|-5----|-2--2-2-2-2-2-2-|
|---------------|-------------|-3----|-0--0-0-0-0-0-0-|
|
|                                         PM--------|
|---------------|-------------|------|----------------|
|---------------|-------------|------|----------------|
|---------------|-------------|------|----------------|
|---------------|-------------|-5----|-2--------------|
|-6p0-6p0-6-5-4-|-6p0-6p0-6-6-|-5----|-2--2-2-2-2-2-2-|
|---------------|-------------|-3----|-0--0-0-0-0-0-0-|


  PM------------------------------------------------|
|-----------------|-----------------|-----------------|
|-----------------|-----------------|-----------------|
|-----------------|-----------------|-----------------|
|-----------------|-----------------|-----------------|
|-2-2-2-2-2-2-2-2-|-2-2-2-2-2-2-2-2-|-2-2-2-2-2-2-2-2-|
|-0-0-0-0-0-0-0-0-|-0-0-0-0-0-0-0-0-|-0-0-0-0-0-0-0-0-|
|
| PM------------------------------------------------|
|-----------------|-----------------|-----------------|
|-----------------|-----------------|-----------------|
|-----------------|-----------------|-----------------|
|-----------------|-----------------|-----------------|
|-2-2-2-2-2-2-2-2-|-2-2-2-2-2-2-2-2-|-2-2-2-2-2-2-2-2-|
|-0-0-0-0-0-0-0-0-|-0-0-0-0-0-0-0-0-|-0-0-0-0-0-0-0-0-|


 Outro

 4/4
      PM   PM      PM    PM             PM--------------------------|
|----------------|-----------------|----------------|-----------------|
|----------------|-----------------|----------------|-----------------|
|----------------|-----------------|----------------|-----------------|
|-10----9--------|---------7s9-7s9-|-2--------------|-----------------|
|--8----7----5s6-|---5s6---5s7-5s7-|-2--2-2-2-2-2-2-|-2-2-2-2-2-2-2-2-|
|-----0----0-3s4-|-0-3s4-0---------|-0--0-0-0-0-0-0-|-0-0-0-0-0-0-0-0-|
|
|     PM   PM      PM    PM             PM--------------------------|
|----------------|-----------------|----------------|-----------------|
|----------------|-----------------|----------------|-----------------|
|----------------|-----------------|----------------|-----------------|
|-10----9--------|---------7s9-7s9-|-2--------------|-----------------|
|--8----7----5s6-|---5s6---5s7-5s7-|-2--2-2-2-2-2-2-|-2-2-2-2-2-2-2-2-|
|-----0----0-3s4-|-0-3s4-0---------|-0--0-0-0-0-0-0-|-0-0-0-0-0-0-0-0-|


  PM------------------------------|       PM   PM      PM    PM
|-----------------|-----------------|----------------|-----------------|
|-----------------|-----------------|----------------|-----------------|
|-----------------|-----------------|----------------|-----------------|
|-----------------|-----------------|-10----9--------|---------7s9-7s9-|
|-2-2-2-2-2-2-2-2-|-2-2-2-2-2-2-2-2-|--8----7----5s6-|---5s6---5s7-5s7-|
|-0-0-0-0-0-0-0-0-|-0-0-0-0-0-0-0-0-|-----0----0-3s4-|-0-3s4-0---------|
|
| PM------------------------------|       PM   PM      PM    PM
|-----------------|-----------------|----------------|-----------------|
|-----------------|-----------------|----------------|-----------------|
|-----------------|-----------------|----------------|-----------------|
|-----------------|-----------------|-10----9--------|---------7s9-7s9-|
|-2-2-2-2-2-2-2-2-|-2-2-2-2-2-2-2-2-|--8----7----5s6-|---5s6---5s7-5s7-|
|-0-0-0-0-0-0-0-0-|-0-0-0-0-0-0-0-0-|-----0----0-3s4-|-0-3s4-0---------|


      PM   PM      PM    PM             PM--------------------------|
|----------------|-----------------|----------------|-----------------|
|----------------|-----------------|----------------|-----------------|
|----------------|-----------------|----------------|-----------------|
|-10----9--------|---------7s9-7s9-|-2--------------|-----------------|
|--8----7----5s6-|---5s6---5s7-5s7-|-2--2-2-2-2-2-2-|-2-2-2-2-2-2-2-2-|
|-----0----0-3s4-|-0-3s4-0---------|-0--0-0-0-0-0-0-|-0-0-0-0-0-0-0-0-|
|
|     PM   PM      PM    PM             PM--------------------------|
|----------------|-----------------|----------------|-----------------|
|----------------|-----------------|----------------|-----------------|
|----------------|-----------------|----------------|-----------------|
|-10----9--------|---------7s9-7s9-|-2--------------|-----------------|
|--8----7----5s6-|---5s6---5s7-5s7-|-2--2-2-2-2-2-2-|-2-2-2-2-2-2-2-2-|
|-----0----0-3s4-|-0-3s4-0---------|-0--0-0-0-0-0-0-|-0-0-0-0-0-0-0-0-|

      PM   PM      PM    PM              PM   PM      PM    PM
|----------------|-----------------|----------------|-----------------|
|----------------|-----------------|----------------|-----------------|
|----------------|-----------------|----------------|-----------------|
|-10----9--------|---------7s9-7s9-|-10----9--------|---------7s9-7s9-|
|--8----7----5s6-|---5s6---5s7-5s7-|--8----7----5s6-|---5s6---5s7-5s7-|
|-----0----0-3s4-|-0-3s4-0---------|-----0----0-3s4-|-0-3s4-0---------|
|
|     PM   PM      PM    PM              PM   PM      PM    PM
|----------------|-----------------|----------------|-----------------|
|----------------|-----------------|----------------|-----------------|
|----------------|-----------------|----------------|-----------------|
|-10----9--------|---------7s9-7s9-|-10----9--------|---------7s9-7s9-|
|--8----7----5s6-|---5s6---5s7-5s7-|--8----7----5s6-|---5s6---5s7-5s7-|
|-----0----0-3s4-|-0-3s4-0---------|-----0----0-3s4-|-0-3s4-0---------|


      PM   PM      PM    PM
|----------------|-----------------|-------------|-------------*|
|----------------|-----------------|-------------|-------------*|
|----------------|-----------------|-10---9------|-------------*|
|-10----9--------|---------7s9-7s9-|----------5--|-(5)-6-------*|
|--8----7----5s6-|---5s6---5s7-5s7-|--8---7------|-------------*|
|-----0----0-3s4-|-0-3s4-0---------|----------3--|-(3)-4-------*|
|
|     PM   PM      PM    PM
|----------------|-----------------|-------------|-------------*|
|----------------|-----------------|--9---9------|-------------*|
|----------------|-----------------|----------4--|-(4)-4-------*|
|-10----9--------|---------7s9-7s9-|--6---6------|-------------*|
|--8----7----5s6-|---5s6---5s7-5s7-|----------2--|-(2)-2-------*|
|-----0----0-3s4-|-0-3s4-0---------|-------------|-------------*|
Добавлено: 19.05.2012
Другие материалы по этой песне:

Страница создана 19.05.2012
http://primanota.ru/beecher/knight-the-arsonist-chords.htm
Привет, Гость.
Предлагаем пройти революционный курс по гитаре.
Подарок от PrimaNota.Ru, забирай!