PrimaNota.ru - самый крупный в мире бесплатный архив песенных текстов, аккордов, табулатур и нот


Beecher - I Wont Miss Or Be Missed - таба, видео

Регистрация Запомнить меня
Войти через:  Facebook Google Twitter Vk Yandex Mail.ru

Beecher - I Wont Miss Or Be Missed - таба, видео

Печатать
Просмотров: 103
## HTML TABS SUCK, I RECOMMEND THE POWERTAB VERSION (http://www.power-tab.net) ##

I WONT MISS OR BE MISSED
(From the 2005 Album THIS ELEGY, HIS AUTOPSY)


 Intro
  Q=210
 5/4
    Gtr I
  W            W            W            W         +Q
|------------|------------|------------|-----------------|
|------------|------------|------------|-----------------|
|------------|------------|------------|-----------------|
|------------|------------|------------|-x\--------(x)\--|
|------------|------------|------------|-x\--------(x)\--|
|------------|------------|------------|-x\--------(x)\--|
|
|   Gtr II
| W            W            W            W         +Q
|------------|------------|------------|-----------------|
|------------|------------|------------|-----------------|
|------------|------------|------------|-----------------|
|------------|------------|------------|-x\--------(x)\--|
|------------|------------|------------|-x\--------(x)\--|
|------------|------------|------------|-x\--------(x)\--|


   4/4
    Gtr I
    TP          TP     TP     TP         TP
    W          +H      H      W          W
||-----------|--------------|----------|------|
||o----------|--------------|----------|------|
||-----------|--------------|----------|------|
||--5--------|-(5)-----9----|-4--------|-2----|
||o----------|--------------|----------|------|
||-----------|--------------|----------|------|
|
|   Gtr II
|   TP          TP     TP     TP         TP
|   W          +H      H      W          W
||-----------|--------------|----------|------|
||o----------|--------------|----------|------|
||-----------|--------------|----------|------|
||-----------|--------------|----------|------|
||o-7--------|-(7)----10----|-5--------|-3----|
||-----------|--------------|----------|------|


                           1.
 4/4
  Gtr I
  TP          TP     TP     TP         TP
  W          +H      H      W          W
|----------|--------------|----------|-------||
|----------|--------------|----------|------o||
|----------|--------------|----------|-------||
|-5--------|-(5)-----9----|-1--------|-2-----||
|----------|--------------|----------|------o||
|----------|--------------|----------|-------||
|
| Gtr II
| TP          TP     TP     TP         TP
| W          +H      H      W          W
|----------|--------------|----------|-------||
|----------|--------------|----------|------o||
|----------|--------------|----------|-------||
|----------|--------------|----------|-------||
|-7--------|-(7)----10----|-2--------|-3----o||
|----------|--------------|----------|-------||


  2.
                           7/4
                            TP    TP    TP TP  TP  TP
  W          H    H         Q.    Q.    Q  Q   Q   Q
|----------|------------||-----------------------------||
|-4--------|-5----------||o---------------------------o||
|----------|------------||-----------------------------||
|-1--------|-2----7\----||-------------12---------12---||
|----------|------7\----||o-7----10--------7--10------o||
|----------|------7\----||-----------------------------||
|
|                           TP    TP    TP TP  TP  TP
| W          H    H         Q.    Q.    Q  Q   Q   Q
|----------|------------||-----------------------------||
|----------|------------||o---------------------------o||
|-4--------|-5----------||-----------------------------||
|----------|------7\----||-------------12---------12---||
|-2--------|-3----7\----||o-7----10--------7--10------o||
|----------|------7\----||-----------------------------||


                             4/4
  TP    TP    TP TP  TP  TP   TP    TP    TP   PM------------|
  Q.    Q.    Q  Q   Q   Q    Q.    Q.    Q    E E E E E E E E
|---------------------------|----------------|-----------------|
|---------------------------|----------------|-----------------|
|---------------------------|----------------|-----------------|
|------------12---------12--|------------12--|-----------------|
|-7----10--------7--10------|-7----10--------|-5---6-----------|
|---------------------------|----------------|-3-0-4-0-6-4-3-4-|
|
| TP    TP    TP TP  TP  TP   TP    TP    TP   PM------------|
| Q.    Q.    Q  Q   Q   Q    Q.    Q.    Q    E E E E E E E E
|---------------------------|----------------|-----------------|
|---------------------------|----------------|-----------------|
|------------11---------11--|------------11--|-----------------|
|-------9------------9------|-------9--------|-----------------|
|-7--------------7----------|-7--------------|-5---6-----------|
|---------------------------|----------------|-3-0-4-0-6-4-3-4-|


   Verse 1
       PM   PM                          PM   PM
    Q  E Q  E Q    E E E E E E E E   Q  E Q  E E E   E E E E E E E E
||---------------|-----------------|---------------|------------------|
||o--------------|-----------------|---------------|------------------|
||---------------|-----------------|---------------|------------------|
||--2----2----2--|-------------8s9-|-2----2--------|---------8s9-8s9--|
||o-2----2----2--|-6p3-----5s6-6s7-|-2----2----6p3-|-----5s6-6s7-6s7--|
||--0--0-0--0-0--|-----4p0-3s4-----|-0--0-0--0-----|-4p0-3s4----------|
|
|      PM   PM                          PM   PM
|   Q  E Q  E Q    E E E E E E E E   Q  E Q  E E E   E E E E E E E E
||---------------|-----------------|---------------|------------------|
||o--------------|-----------------|---------------|------------------|
||---------------|-----------------|---------------|------------------|
||--2----2----2--|-------------8s9-|-2----2--------|---------8s9-8s9--|
||o-2----2----2--|-6p3-----5s6-6s7-|-2----2----6p3-|-----5s6-6s7-6s7--|
||--0--0-0--0-0--|-----4p0-3s4-----|-0--0-0--0-----|-4p0-3s4----------|


     PM   PM                           PM    PM           PM    PM
  Q  E Q  E Q    E E E E E E E E    Q  E  Q  E  Q      Q  E  Q  E  Q
|--------------|-----------------|------------------|-------------------||
|--------------|-----------------|------------------|------------------o||
|--------------|-----------------|-10--x-10--x------|-10--x-10--x-------||
|-2----2----2--|-------------8s9-|-10--x-10--x------|-10--x-10--x-------||
|-2----2----2--|-6p3-----5s6-6s7-|--8--x--8--x-15\--|--8--x--8--x-15\--o||
|-0--0-0--0-0--|-----4p0-3s4-----|-------------15\--|-------------15\---||
|
|    PM   PM                           PM    PM           PM    PM
| Q  E Q  E Q    E E E E E E E E    Q  E  Q  E  Q      Q  E  Q  E  Q
|--------------|-----------------|------------------|-------------------||
|--------------|-----------------|------------------|------------------o||
|--------------|-----------------|-10--x-10--x------|-10--x-10--x-------||
|-2----2----2--|-------------8s9-|-10--x-10--x------|-10--x-10--x-------||
|-2----2----2--|-6p3-----5s6-6s7-|--8--x--8--x-15\--|--8--x--8--x-15\--o||
|-0--0-0--0-0--|-----4p0-3s4-----|-------------15\--|-------------15\---||


 Chorus
  Q.   Q.   Q    E E E E E E E E   Q.   Q.   E E   E E E E E E E E
|-0----0----0--|-2p0-------------|-0----0----2p0-|-----------------|
|-0----0----0--|-----4p0-----4p0-|-0----0--------|-4p0-----4p0-5p0-|
|-9----9----9--|---------5p0-----|-9----9--------|-----5p0---------|
|-9----9----9--|-----------------|-9----9--------|-----------------|
|-7----7----7--|-----------------|-7----7--------|-----------------|
|--------------|-----------------|---------------|-----------------|
|
| Q.   Q.   Q    W                 Q.   Q.   Q     W
|-0----0----0--|-----------------|-0----0--------|-----------------|
|-0----0----0--|-----------------|-0----0--------|-----------------|
|-9----9----9--|-----------------|-9----9--------|-----------------|
|-9----9----9--|-----------------|-9----9--------|-----------------|
|-7----7----7--|-----------------|-7----7--------|-----------------|
|--------------|-----------------|---------------|-----------------|


  Q.   Q.   Q    E E E E E E E E   W          H     H
|-0----0----0--|-2p0-------------|----------|-------------|
|-0----0----0--|-----4p0-----4p0-|----------|-------------|
|-9----9----9--|---------5p0-----|-5--------|-8-----------|
|-9----9----9--|-----------------|-5--------|-8----12\----|
|-7----7----7--|-----------------|-3--------|-6----12\----|
|--------------|-----------------|----------|------12\----|
|
| Q.   Q.   Q    W                 W          H     H
|-0----0----0--|-----------------|----------|-------------|
|-0----0----0--|-----------------|----------|-------------|
|-9----9----9--|-----------------|-5--------|-8-----------|
|-9----9----9--|-----------------|-5--------|-8----12\----|
|-7----7----7--|-----------------|-3--------|-6----12\----|
|--------------|-----------------|----------|------12\----|


  Q.   Q.   Q    E E E E E E E E   Q.   Q.   E E   E E E E E E E E
|-0----0----0--|-2p0-------------|-0----0----2p0-|-----------------|
|-0----0----0--|-----4p0-----4p0-|-0----0--------|-4p0-----4p0-5p0-|
|-9----9----9--|---------5p0-----|-9----9--------|-----5p0---------|
|-9----9----9--|-----------------|-9----9--------|-----------------|
|-7----7----7--|-----------------|-7----7--------|-----------------|
|--------------|-----------------|---------------|-----------------|
|
| Q.   Q.   Q    W                 Q.   Q.   Q     W
|-0----0----0--|-----------------|-0----0--------|-----------------|
|-0----0----0--|-----------------|-0----0--------|-----------------|
|-9----9----9--|-----------------|-9----9--------|-----------------|
|-9----9----9--|-----------------|-9----9--------|-----------------|
|-7----7----7--|-----------------|-7----7--------|-----------------|
|--------------|-----------------|---------------|-----------------|


  Q.   Q.   Q    E E E E E E E E   Q.   Q.   Q    H    H
|-0----0----0--|-2p0-------------|--------------|-----------|
|-0----0----0--|-----4p0-----4p0-|--------------|-----------|
|-9----9----9--|---------5p0-----|-8----5----9--|-8---------|
|-9----9----9--|-----------------|-8----5----9--|-8----7----|
|-7----7----7--|-----------------|-6----3----7--|-6----7----|
|--------------|-----------------|--------------|------5----|
|
| Q.   Q.   Q    W                 Q.   Q.   Q    H    H
|-0----0----0--|-----------------|--------------|-----------|
|-0----0----0--|-----------------|--------------|-----------|
|-9----9----9--|-----------------|-8----5----9--|-8---------|
|-9----9----9--|-----------------|-8----5----9--|-8----7----|
|-7----7----7--|-----------------|-6----3----7--|-6----7----|
|--------------|-----------------|--------------|------5----|


  PM--------|                    ~~~      PM   PM
  q.   q.   q    E E E E  Q     +Q     Q  E Q  E E E   E E E E E E E E
|--------------|---------------------|---------------|-----------------|
|--------------|---------------------|---------------|-----------------|
|--------------|---------------------|---------------|-----------------|
|-2----2----2--|---------------------|-2----2--------|---------8s9-8s9-|
|-2----2----2--|-6p3-----[5]b7r=(5)--|-2----2----6p3-|-----5s6-6s7-6s7-|
|-0----0----0--|-----4p0-------------|-0--0-0--0-----|-4p0-3s4---------|
|
| PM--------|                             PM   PM
| q.   q.   q    W                     Q  E Q  E E E   E E E E E E E E
|--------------|---------------------|---------------|-----------------|
|--------------|---------------------|---------------|-----------------|
|--------------|---------------------|---------------|-----------------|
|-2----2----2--|---------------------|-2----2--------|---------8s9-8s9-|
|-2----2----2--|---------------------|-2----2----6p3-|-----5s6-6s7-6s7-|
|-0----0----0--|---------------------|-0--0-0--0-----|-4p0-3s4---------|


 Verse 2
     PM   PM                           PM    PM           PM    PM
  Q  E Q  E Q    E E E E E E E E    Q  E  Q  E  Q      Q  E  Q  E  Q
|--------------|-----------------|------------------|------------------|
|--------------|-----------------|------------------|------------------|
|--------------|-----------------|-10--x-10--x------|-10--x-10--x------|
|-2----2----2--|-------------8s9-|-10--x-10--x------|-10--x-10--x------|
|-2----2----2--|-6p3-----5s6-6s7-|--8--x--8--x-15\--|--8--x--8--x-15\--|
|-0--0-0--0-0--|-----4p0-3s4-----|-------------15\--|-------------15\--|
|
|    PM   PM                           PM    PM           PM    PM
| Q  E Q  E Q    E E E E E E E E    Q  E  Q  E  Q      Q  E  Q  E  Q
|--------------|-----------------|------------------|------------------|
|--------------|-----------------|------------------|------------------|
|--------------|-----------------|-10--x-10--x------|-10--x-10--x------|
|-2----2----2--|-------------8s9-|-10--x-10--x------|-10--x-10--x------|
|-2----2----2--|-6p3-----5s6-6s7-|--8--x--8--x-15\--|--8--x--8--x-15\--|
|-0--0-0--0-0--|-----4p0-3s4-----|-------------15\--|-------------15\--|


     PM   PM                          PM   PM
  Q  E Q  E Q    E E E E E E E E   Q  E Q  E E E   E E E E E E E E
|--------------|-----------------|---------------|-----------------|
|--------------|-----------------|---------------|-----------------|
|--------------|-----------------|---------------|-----------------|
|-2----2----2--|-------------8s9-|-2----2--------|---------8s9-8s9-|
|-2----2----2--|-6p3-----5s6-6s7-|-2----2----6p3-|-----5s6-6s7-6s7-|
|-0--0-0--0-0--|-----4p0-3s4-----|-0--0-0--0-----|-4p0-3s4---------|
|
|    PM   PM                          PM   PM
| Q  E Q  E Q    E E E E E E E E   Q  E Q  E E E   E E E E E E E E
|--------------|-----------------|---------------|-----------------|
|--------------|-----------------|---------------|-----------------|
|--------------|-----------------|---------------|-----------------|
|-2----2----2--|-------------8s9-|-2----2--------|---------8s9-8s9-|
|-2----2----2--|-6p3-----5s6-6s7-|-2----2----6p3-|-----5s6-6s7-6s7-|
|-0--0-0--0-0--|-----4p0-3s4-----|-0--0-0--0-----|-4p0-3s4---------|


     PM   PM                           PM    PM
  Q  E Q  E Q    E E E E E E E E    Q  E  Q  E  Q      E  E  E  E  E  E  E  E
|--------------|-----------------|------------------|-------------------------|
|--------------|-----------------|------------------|-------------------------|
|--------------|-----------------|-10--x-10--x------|-10-10-10-10-13-13-13-13-|
|-2----2----2--|-------------8s9-|-10--x-10--x------|-10-10-10-10-13-13-13-13-|
|-2----2----2--|-6p3-----5s6-6s7-|--8--x--8--x-15\--|--8--8--8--8-11-11-11-11-|
|-0--0-0--0-0--|-----4p0-3s4-----|-------------15\--|-------------------------|
|
|    PM   PM                           PM    PM
| Q  E Q  E Q    E E E E E E E E    Q  E  Q  E  Q      E  E  E  E  E  E  E  E
|--------------|-----------------|------------------|-------------------------|
|--------------|-----------------|------------------|-------------------------|
|--------------|-----------------|-10--x-10--x------|-10-10-10-10-13-13-13-13-|
|-2----2----2--|-------------8s9-|-10--x-10--x------|-10-10-10-10-13-13-13-13-|
|-2----2----2--|-6p3-----5s6-6s7-|--8--x--8--x-15\--|--8--8--8--8-11-11-11-11-|
|-0--0-0--0-0--|-----4p0-3s4-----|-------------15\--|-------------------------|


   Chorus
         PM  PM    PM       PM  PM    PM
    E  E E E E E E E   E  E E E E E E E
||-------------------|------------------|
||o------------------|------------------|
||-------------------|------------------|
||--9s10-------------|-9s10-------------|
||o-7s=8---3---5s6---|-7s=8---3---5s6---|
||-------0-1-0-3s4-0-|------0-1-0-3s4-0-|
|
|        PM  PM    PM       PM  PM    PM
|   E  E E E E E E E   E  E E E E E E E
||-------------------|------------------|
||o------------------|------------------|
||-------------------|------------------|
||--9s10-------------|-9s10-------------|
||o-7s=8---3---5s6---|-7s=8---3---5s6---|
||-------0-1-0-3s4-0-|------0-1-0-3s4-0-|


                    1.,3.
       PM  PM    PM      PM    PM
  E  E E E E E E E   E E E E E E E E   4x
|------------------|-------------------||
|------------------|------------------o||
|------------------|-------------------||
|-9s10-------------|-------------------||
|-7s=8---3---5s6---|-5s6---5s6---5s6--o||
|------0-1-0-3s4-0-|-3s4-0-3s4-0-3s4---||
|
|      PM  PM    PM      PM    PM
| E  E E E E E E E   E E E E E E E E   4x
|------------------|-------------------||
|------------------|------------------o||
|------------------|-------------------||
|-9s10-------------|-------------------||
|-7s=8---3---5s6---|-5s6---5s6---5s6--o||
|------0-1-0-3s4-0-|-3s4-0-3s4-0-3s4---||


  2.,4.
   E  E  E  E  E  E  E  E          E  E  E  E  E E E  E
|--------------------------||-||------------------------|
|-------------------------o||-||o-----------------------|
|-13-13-13-13-13-13-13-13--||-||--10-10-10-10-10-9-7-10-|
|-13-13-13-13-13-13-13-13--||-||--10-10-10-10-10-9-7-10-|
|-11-11-11-11-11-11-11-11-o||-||o--8--8--8--8--8-7-5--8-|
|--------------------------||-||------------------------|
|
|  E  E  E  E  E  E  E  E          E  E  E  E  E E E  E
|--------------------------||-||------------------------|
|-------------------------o||-||o-----------------------|
|-13-13-13-13-13-13-13-13--||-||--10-10-10-10-10-9-7-10-|
|-13-13-13-13-13-13-13-13--||-||--10-10-10-10-10-9-7-10-|
|-11-11-11-11-11-11-11-11-o||-||o--8--8--8--8--8-7-5--8-|
|--------------------------||-||------------------------|


 1.,2.,3.                 4.
   E  E E E  E  E E E  4x  E  E  E  E  E Q.
|----------------------||----------------------|
|---------------------o||----------------------|
|-10-10-9-7-10-10-9-7--||-10-10-10-10-10-------|
|-10-10-9-7-10-10-9-7--||-10-10-10-10-10-9-----|
|--8--8-7-5--8--8-7-5-o||--8--8--8--8--8-9-----|
|----------------------||----------------7-----|
|
|  E  E E E  E  E E E  4x  E  E  E  E  E Q.
|----------------------||----------------------|
|---------------------o||----------------------|
|-10-10-9-7-10-10-9-7--||-10-10-10-10-10-------|
|-10-10-9-7-10-10-9-7--||-10-10-10-10-10-9-----|
|--8--8-7-5--8--8-7-5-o||--8--8--8--8--8-9-----|
|----------------------||----------------7-----|


 Bridge
     PM   PM
  Q  E Q  E Q    E E E E E E E E   Q.   Q.   E E   E E E E E E E E
|--------------|-----------------|-0----0----2p0-|-----------------|
|--------------|-----------------|-0----0--------|-4p0-----4p0-5p0-|
|--------------|-----------------|-9----9--------|-----5p0---------|
|-2----2----2--|-------------8s9-|-9----9--------|-----------------|
|-2----2----2--|-6p3-----5s6-6s7-|-7----7--------|-----------------|
|-0--0-0--0-0--|-----4p0-3s4-----|---------------|-----------------|
|
|    PM   PM
| Q  E Q  E Q    E E E E E E E E   Q.   Q.   Q     W
|--------------|-----------------|-0----0--------|-----------------|
|--------------|-----------------|-0----0--------|-----------------|
|--------------|-----------------|-9----9--------|-----------------|
|-2----2----2--|-------------8s9-|-9----9--------|-----------------|
|-2----2----2--|-6p3-----5s6-6s7-|-7----7--------|-----------------|
|-0--0-0--0-0--|-----4p0-3s4-----|---------------|-----------------|


     PM   PM                           PM    PM
  Q  E Q  E Q    E E E E E E E E    Q  E  Q  E  Q      Q   E  E  E  E  E  E
|--------------|-----------------|------------------|-----------------------|
|--------------|-----------------|------------------|-----------------------|
|--------------|-----------------|-10--x-10--x------|-10--10-10-13-13-13-13-|
|-2----2----2--|-------------8s9-|-10--x-10--x------|-10--10-10-13-13-13-13-|
|-2----2----2--|-6p3-----5s6-6s7-|--8--x--8--x-15\--|--8---8--8-11-11-11-11-|
|-0--0-0--0-0--|-----4p0-3s4-----|-------------15\--|-----------------------|
|
|    PM   PM                           PM    PM
| Q  E Q  E Q    E E E E E E E E    Q  E  Q  E  Q      Q   E  E  E  E  E  E
|--------------|-----------------|------------------|-----------------------|
|--------------|-----------------|------------------|-----------------------|
|--------------|-----------------|-10--x-10--x------|-10--10-10-13-13-13-13-|
|-2----2----2--|-------------8s9-|-10--x-10--x------|-10--10-10-13-13-13-13-|
|-2----2----2--|-6p3-----5s6-6s7-|--8--x--8--x-15\--|--8---8--8-11-11-11-11-|
|-0--0-0--0-0--|-----4p0-3s4-----|-------------15\--|-----------------------|


                                      PM   PM
  Q.   Q.   Q    E E E E E E E E   Q  E Q  E E E   E E E E E E E E
|-0----0----0--|-2p0-------------|---------------|-----------------|
|-0----0----0--|-----4p0-----4p0-|---------------|-----------------|
|-9----9----9--|---------5p0-----|---------------|-----------------|
|-9----9----9--|-----------------|-2----2--------|---------8s9-8s9-|
|-7----7----7--|-----------------|-2----2----6p3-|-----5s6-6s7-6s7-|
|--------------|-----------------|-0--0-0--0-----|-4p0-3s4---------|
|
|                                     PM   PM
| Q.   Q.   Q    W                 Q  E Q  E E E   E E E E E E E E
|-0----0----0--|-----------------|---------------|-----------------|
|-0----0----0--|-----------------|---------------|-----------------|
|-9----9----9--|-----------------|---------------|-----------------|
|-9----9----9--|-----------------|-2----2--------|---------8s9-8s9-|
|-7----7----7--|-----------------|-2----2----6p3-|-----5s6-6s7-6s7-|
|--------------|-----------------|-0--0-0--0-----|-4p0-3s4---------|


  Q.   Q.   Q    E E E E E E E E   Q.   Q.   Q    H    H
|-0----0----0--|-2p0-------------|--------------|-----------|
|-0----0----0--|-----4p0-----4p0-|--------------|-----------|
|-9----9----9--|---------5p0-----|-8----5----9--|-8---------|
|-9----9----9--|-----------------|-8----5----9--|-8----7----|
|-7----7----7--|-----------------|-6----3----7--|-6----7----|
|--------------|-----------------|--------------|------5----|
|
| Q.   Q.   Q    W                 Q.   Q.   Q    H    H
|-0----0----0--|-----------------|--------------|-----------|
|-0----0----0--|-----------------|--------------|-----------|
|-9----9----9--|-----------------|-8----5----9--|-8---------|
|-9----9----9--|-----------------|-8----5----9--|-8----7----|
|-7----7----7--|-----------------|-6----3----7--|-6----7----|
|--------------|-----------------|--------------|------5----|


  W          +W           +W           +H     H
|----------|------------|------------|--------------|
|----------|------------|------------|--------------|
|----------|------------|------------|--------7\----|
|-2--------|-(2)--------|-(2)--------|-(2)----7\----|
|-2--------|-(2)--------|-(2)--------|-(2)----5\----|
|-0--------|-(0)--------|-(0)--------|-(0)----------|
|
| W          +W           +W           +H     H
|----------|------------|------------|--------------|
|----------|------------|------------|--------------|
|----------|------------|------------|--------7\----|
|-2--------|-(2)--------|-(2)--------|-(2)----7\----|
|-2--------|-(2)--------|-(2)--------|-(2)----5\----|
|-0--------|-(0)--------|-(0)--------|-(0)----------|


 Surf o' Breakdown
 5/4
  W                     W
|---------------------|---------------------|
|---------------------|---------------------|
|---------------------|---------------------|
|---------------------|---------------------|
|---------------------|---------------------|
|---------------------|---------------------|
|
| Gtr IV
| PM-----------------------------------------
| E E E E E E E E E E   E E E E E E E E E E
|---------------------|---------------------|
|---------------------|---------------------|
|---------------------|---------------------|
|-------2-2-2-----5-5-|-------2-2-2---------|
|-4-4-4-------4-4-----|-4-4-4-------0-0-3-3-|
|---------------------|---------------------|


  Gtr III
   \0.25                         /
   W                    +Q       W                +Q
|--9--------------------(9)---|--9----------------(9)---|
|--9--------------------(9)---|--9----------------(9)---|
|--9--------------------(9)---|--9----------------(9)---|
|-11-------------------(11)---|-11---------------(11)---|
|-----------------------------|-------------------------|
|-----------------------------|-------------------------|
|
|-----------------------------------------------------|
|  E     E E E E E E E   E  E    E E E E E E E E   E  E
|-----------------------------|-------------------------|
|-----------------------------|-------------------------|
|-----------------------------|-------------------------|
|------------2-2-2-------5--5-|--------2-2-2------------|
|--4-----4-4-------4-4--------|--4-4-4-------0-0---3--3-|
|-----------------------------|-------------------------|


   W                +Q       Q.      Q.      H
|--9----------------------|--9-------9------12-------|
|-12---------------(12)---|-11-------9-------9-------|
|--9----------------(9)---|--9-------9-------9-------|
|-11---------------(11)---|-11------11------11-------|
|-------------------------|--------------------------|
|-------------------------|--------------------------|
|
|  PM-------------------------------------------------
|  E E E E E E E E   E  E    E  E E  E  E E  E E E E
|-------------------------|--------------------------|
|-------------------------|--------------------------|
|-------------------------|--------------------------|
|--------2-2-2-------5--5-|----------2--2-2----------|
|--4-4-4-------4-4--------|--4--4-4----------0-0-3-3-|
|-------------------------|--------------------------|


   W                   +Q       +W                 +Q
|-14------------------(14)---|-(14)---------------(14)----|
|--9-------------------(9)---|--(9)----------------(9)----|
|--9-------------------(9)---|--(9)----------------(9)----|
|-11b13---------------(11)---|-(11)---------------(11)----|
|----------------------------|----------------------------|
|----------------------------|----------------------------|
|
|------------------------------------------------------|
|  E    E E E E E E E   E  E     E  E E E E E E E   E  E
|----------------------------|----------------------------|
|----------------------------|----------------------------|
|----------------------------|----------------------------|
|-----------2-2-2-------5--5-|----------2-2-2-------------|
|--4----4-4-------4-4--------|---4--4-4-------0-0---3--3--|
|----------------------------|----------------------------|


   7/8
    W               W               W               W
||----------------|---------------|---------------|----------------||
||o---------------|---------------|---------------|---------------o||
||----------------|---------------|---------------|----------------||
||----------------|---------------|---------------|----------------||
||o---------------|---------------|---------------|---------------o||
||----------------|---------------|---------------|----------------||
|
|   PM--------|       PM----|       PM--------|       PM----|
|   E E E E E E E   E E E E E E E   E E E E E E E   E E E E E E E
||----------------|---------------|---------------|----------------||
||o---------------|---------------|---------------|---------------o||
||----------------|---------------|---------------|----------------||
||----------------|---------------|---------------|----------------||
||o-------------5-|-5---------5-5-|-------------5-|-5---------5-5-o||
||--0-0-0-3-3-3---|---0-0-3-3-----|-0-0-0-3-3-3---|---0-0-3-3------||


 5/4
   W                +Q       +W                 +Q
|--9----------------(9)---|--(9)----------------(9)---|
|--9----------------(9)---|--(9)----------------(9)---|
|--9----------------(9)---|--(9)----------------(9)---|
|-11---------------(11)---|-(11)---------------(11)---|
|-------------------------|---------------------------|
|-------------------------|---------------------------|
|
|  PM--------------------------------------------------
|  E E E E E E E E   E  E     E  E E E E E E E   E  E
|-------------------------|---------------------------|
|-------------------------|---------------------------|
|-------------------------|---------------------------|
|--------2-2-2-------5--5-|----------2-2-2------------|
|--4-4-4-------4-4--------|---4--4-4-------0-0---3--3-|
|-------------------------|---------------------------|


   W                +Q       Q.      Q.      +H
|--9----------------------|--9-------9-------(9)-------|
|-12---------------(12)---|-11-------9-------(9)-------|
|--9----------------(9)---|--9-------9-------(9)-------|
|-11---------------(11)---|-11------11------(11)-------|
|-------------------------|----------------------------|
|-------------------------|----------------------------|
|
|----------------------------------------------------|
|  E E E E E E E E   E  E    E  E E  E  E E   E  E E E
|-------------------------|----------------------------|
|-------------------------|----------------------------|
|-------------------------|----------------------------|
|--------2-2-2-------5--5-|----------2--2-2------------|
|--4-4-4-------4-4--------|--4--4-4-----------0--0-3-3-|
|-------------------------|----------------------------|


 5/4
   W                   +Q       +W                 +Q
|-14b16---------------(14)---|-(14)---------------(14)---|
|--9b11----------------(9)---|--(9)----------------(9)---|
|--9b11----------------(9)---|--(9)----------------(9)---|
|-11b13---------------(11)---|-(11)---------------(11)---|
|----------------------------|---------------------------|
|----------------------------|---------------------------|
|
|  PM-----------------------------------------------------
|  E    E E E E E E E   E  E     E  E E E E E E E   E  E
|----------------------------|---------------------------|
|----------------------------|---------------------------|
|----------------------------|---------------------------|
|-----------2-2-2-------5--5-|----------2-2-2------------|
|--4----4-4-------4-4--------|---4--4-4-------0-0---3--3-|
|----------------------------|---------------------------|


   +W                 +Q       +W                 +Q
|-(14)---------------(14)---|-(14)---------------(14)---|
|--(9)----------------(9)---|--(9)----------------(9)---|
|--(9)----------------(9)---|--(9)----------------(9)---|
|-(11)---------------(11)---|-(11)---------------(11)---|
|---------------------------|---------------------------|
|---------------------------|---------------------------|
|
|-----------------------------------------------------|
|   E  E E E E E E E   E  E     E  E E E E E E E   E  E
|---------------------------|---------------------------|
|---------------------------|---------------------------|
|---------------------------|---------------------------|
|----------2-2-2-------5--5-|----------2-2-2------------|
|---4--4-4-------4-4--------|---4--4-4-------0-0---3--3-|
|---------------------------|---------------------------|


   7/8
    W               W               W               W
||----------------|---------------|---------------|----------------||
||o---------------|---------------|---------------|---------------o||
||----------------|---------------|---------------|----------------||
||----------------|---------------|---------------|----------------||
||o---------------|---------------|---------------|---------------o||
||----------------|---------------|---------------|----------------||
|
|   PM--------|       PM----|       PM--------|       PM----|
|   E E E E E E E   E E E E E E E   E E E E E E E   E E E E E E E
||----------------|---------------|---------------|----------------||
||o---------------|---------------|---------------|---------------o||
||----------------|---------------|---------------|----------------||
||----------------|---------------|---------------|----------------||
||o-------------5-|-5---------5-5-|-------------5-|-5---------5-5-o||
||--0-0-0-3-3-3---|---0-0-3-3-----|-0-0-0-3-3-3---|---0-0-3-3------||


 Guitar Break
 4/4
  Gtr I
                            ~         PM     PM------------------|
  E q  Q     E  Q    E Q  E H      Q  E Q.   E E   E E E E E E E E
|------------------|-------------|---------------|------------------|
|------------------|-------------|---------------|------------------|
|-9-9--9-----------|---8---------|------9\-------|------------------|
|-9-9--9-----x--8--|-x-8--x------|-2----9\-------|------------------|
|-7-7--7-----x-10--|-x-6--x------|-2----7\-------|------------------|
|------------------|--------3----|-0--0------0-0-|-3-0-3-5-6-5-3-0--|
|
| Gtr II
|                                     PM     PM------------------|
| E      H..         W             Q  E Q.   E E   E E E E E E E E
|------------------|-------------|---------------|------------------|
|------------------|-------------|---------------|------------------|
|-9----------------|-------------|------9\-------|------------------|
|-9----------------|-------------|-2----9\-------|------------------|
|-7----------------|-------------|-2----7\-------|------------------|
|------------------|-------------|-0--0------0-0-|-3-0-3-5-6-5-3-0--|


                         ~         PM    PM     PM    PM------|
  E q  Q  E  Q    E Q  E H      Q  E Q   E Q    E Q   E E E E E
|---------------|-------------|---------------|-----------------|
|---------------|-------------|---------------|-----------------|
|-9-9--9--------|---8---------|------9\-------|---9\------------|
|-9-9--9--x--8--|-x-8--x------|-2----9\----2--|---9\------------|
|-7-7--7--x-10--|-x-6--x------|-2----7\----2--|---7\--------5-5-|
|---------------|--------3----|-0--0-----0-0--|-0-----0-3-3-----|
|
|                        ~         PM    PM     PM    PM------|
| E q  Q  E  Q    E Q  E H      Q  E Q   E Q    E Q   E E E E E
|---------------|-------------|---------------|-----------------|
|---------------|-------------|---------------|-----------------|
|-9-9--9--------|---8---------|------9\-------|---9\------------|
|-9-9--9--x--8--|-x-8--x------|-2----9\----2--|---9\------------|
|-7-7--7--x-10--|-x-6--x------|-2----7\----2--|---7\--------5-5-|
|---------------|--------3----|-0--0-----0-0--|-0-----0-3-3-----|


 4/4
  Gtr I
                         ~         PM     PM------------------|
  E q  Q  E  Q    E Q  E H      Q  E Q.   E E   E E E E E E E E
|---------------|-------------|---------------|------------------|
|---------------|-------------|---------------|------------------|
|-9-9--9--------|---8---------|------9\-------|------------------|
|-9-9--9--x--8--|-x-8--x------|-2----9\-------|------------------|
|-7-7--7--x-10--|-x-6--x------|-2----7\-------|------------------|
|---------------|--------3----|-0--0------0-0-|-3-0-3-5-6-5-3-0--|
|
|                        ~         PM     PM------------------|
| E q  Q  E  Q    E Q  E H      Q  E Q.   E E   E E E E E E E E
|---------------|-------------|---------------|------------------|
|---------------|-------------|---------------|------------------|
|-9-9--9--------|---8---------|------9\-------|------------------|
|-9-9--9--x--8--|-x-8--x------|-2----9\-------|------------------|
|-7-7--7--x-10--|-x-6--x------|-2----7\-------|------------------|
|---------------|--------3----|-0--0------0-0-|-3-0-3-5-6-5-3-0--|


                                            2/4
  E q  Q  E  Q    E Q  E H      +W           H
|---------------|-------------|------------|------|
|---------------|-------------|------------|------|
|-9-9--9--------|---8---------|------------|------|
|-9-9--9--x--8--|-x-8--x-7----|-(7)--------|-5----|
|-7-7--7--x-10--|-x-6--x-7----|-(7)--------|-5----|
|---------------|--------5----|-(5)--------|-3----|
|
| E q  Q  E  Q    E Q  E H      +W           H
|---------------|-------------|------------|------|
|---------------|-------------|------------|------|
|-9-9--9--------|---8---------|------------|------|
|-9-9--9--x--8--|-x-8--x-7----|-(7)--------|-5----|
|-7-7--7--x-10--|-x-6--x-7----|-(7)--------|-5----|
|---------------|--------5----|-(5)--------|-3----|


 Verse
 4/4
  W          +H      H      W          W
|----------|--------------|----------|------|
|----------|--------12----|-7--------|-5----|
|----------|--------------|----------|------|
|-2--------|-(2)----------|----------|------|
|-2--------|-(2)----10----|-5--------|-3----|
|-0--------|-(0)----------|----------|------|
|
| W          +H      H      W          W
|----------|--------------|----------|------|
|-8--------|-(8)----12----|-7--------|-5----|
|----------|--------------|----------|------|
|----------|--------------|----------|------|
|-7--------|-(7)----10----|-5--------|-3----|
|----------|--------------|----------|------|


  W          +H      H      W          W
|----------|--------------|----------|------|
|-8--------|-(8)----12----|-4--------|-5----|
|----------|--------------|----------|------|
|----------|--------------|----------|------|
|-7--------|-(7)----10----|-2--------|-3----|
|----------|--------------|----------|------|
|
| W          +H      H      W          W
|----------|--------------|----------|------|
|-8--------|-(8)----12----|-4--------|-5----|
|----------|--------------|----------|------|
|----------|--------------|----------|------|
|-7--------|-(7)----10----|-2--------|-3----|
|----------|--------------|----------|------|


 4/4
  PM------------------------------------------------------------------------|
  E E E E E E E E    E  E E E  E  E  E  E   E E E E E E E E   E E E E E E E E
|-----------------|-----------------------|-----------------|------------------|
|-----------------|-----------------------|-----------------|------------------|
|-----------------|-----------------------|-----------------|------------------|
|-----------------|-----------------------|-----------------|------------------|
|-7-7-7-7-7-7-7-7-|--7--7-7-7-10-10-10-10-|-5-5-5-5-5-5-5-5-|-3-3-3-3-3-3-3-3--|
|-----------------|-----------------------|-----------------|------------------|
|
| W                 +H         H            W                 W
|-----------------|-----------------------|-----------------|------------------|
|-8---------------|-(8)-------12----------|-7---------------|-5----------------|
|-----------------|-----------------------|-----------------|------------------|
|-----------------|-----------------------|-----------------|------------------|
|-7---------------|-(7)-------10----------|-5---------------|-3----------------|
|-----------------|-----------------------|-----------------|------------------|


  PM------------------------------------------------------------------------|
  E E E E E E E E    E  E E E  E  E  E  E   E E E E E E E E   E E E E E E E E
|-----------------|-----------------------|-----------------|-----------------|
|-----------------|-----------------------|-----------------|-----------------|
|-----------------|-----------------------|-----------------|-----------------|
|-----------------|-----------------------|-----------------|-----------------|
|-7-7-7-7-7-7-7-7-|--7--7-7-7-10-10-10-10-|-2-2-2-2-2-2-2-2-|-3-3-3-3-3-3-3-3-|
|-----------------|-----------------------|-----------------|-----------------|
|
| W                 +H         H            W                 W
|-----------------|-----------------------|-----------------|-----------------|
|-8---------------|-(8)-------12----------|-4---------------|-5---------------|
|-----------------|-----------------------|-----------------|-----------------|
|-----------------|-----------------------|-----------------|-----------------|
|-7---------------|-(7)-------10----------|-2---------------|-3---------------|
|-----------------|-----------------------|-----------------|-----------------|


 4/4
   PM--|   PM---------|     PM-------|
   E E E E E E  E E    E  E E E  E E E E
|-------------------|--------------------|
|-------------------|--------------------|
|-------------------|--------------------|
|--------9----------|-----9------------9-|
|-10-9-7---7-7-10-9-|--7----7-7-10-9-7---|
|-------------------|--------------------|
|
|  W                  +H         H
|-------------------|--------------------|
|--8----------------|-(8)-------12-------|
|-------------------|--------------------|
|-------------------|--------------------|
|--7----------------|-(7)-------10-------|
|-------------------|--------------------|


  PM  PM-----------------------------|
  E E E E E E  E E    E E E E E E  E E
|------------------|--------------------|
|------------------|--------------------|
|---9--------------|--------------------|
|-----7-7-9-7----7-|--------------------|
|-7-----------10---|-10-9-7-7-9-7-------|
|------------------|--------------10-8--|
|
| W                   W
|------------------|--------------------|
|-7----------------|--5-----------------|
|------------------|--------------------|
|------------------|--------------------|
|-5----------------|--3-----------------|
|------------------|--------------------|


 4/4
   PM--|   PM---------|     PM   PM-------
   E E E E E E  E E    E  E E E  E E E E
|-------------------|--------------------|
|-------------------|--------------------|
|-------------------|---------9----------|
|--------9----------|-----9--------------|
|-10-9-7---7-7-10-9-|--7----7----7-7-7-7-|
|-------------------|--------------------|
|
|  W                  +H         H
|-------------------|--------------------|
|--8----------------|-(8)-------12-------|
|-------------------|--------------------|
|-------------------|--------------------|
|--7----------------|-(7)-------10-------|
|-------------------|--------------------|


 -----|   PM-------------------------|
  E E E E E E E E   E E E E  E  E  E  E
|-----------------|----------------------|
|-----------------|----------------------|
|-----------------|----------------------|
|-------9---------|---------10-10-10-10--|
|-----------------|----------------------|
|-7-7-7---7-7-7-7-|-8-8-8-8--------------|
|
| W                 W
|-----------------|----------------------|
|-4---------------|-5--------------------|
|-----------------|----------------------|
|-----------------|----------------------|
|-2---------------|-3--------------------|
|-----------------|----------------------|


 4/4
   PM--|   PM---------|     PM-------|
   E E E E E E  E E    E  E E E  E E E E
|-------------------|--------------------|
|-------------------|--------------------|
|-------------------|--------------------|
|--------9----------|-----9------------9-|
|-10-9-7---7-7-10-9-|--7----7-7-10-9-7---|
|-------------------|--------------------|
|
|  W                  +H         H
|-------------------|--------------------|
|--8----------------|-(8)-------12-------|
|-------------------|--------------------|
|-------------------|--------------------|
|--7----------------|-(7)-------10-------|
|-------------------|--------------------|


  PM  PM-----------------------------|
  E E E E E E  E E    E E E E E E  E E
|------------------|--------------------|
|------------------|--------------------|
|---9--------------|--------------------|
|-----7-7-9-7----7-|--------------------|
|-7-----------10---|-10-9-7-7-9-7-------|
|------------------|--------------10-8--|
|
| W                   W
|------------------|--------------------|
|-7----------------|--5-----------------|
|------------------|--------------------|
|------------------|--------------------|
|-5----------------|--3-----------------|
|------------------|--------------------|


 4/4
   PM--|   PM---------|     PM   PM----|
   E E E E E E  E E    E  E E E  E E E E   W          W
|-------------------|--------------------|----------|------|
|-------------------|--------------------|----------|------|
|-------------------|---------9----------|-7--------|-9----|
|--------9----------|-----9--------------|----------|------|
|-10-9-7---7-7-10-9-|--7----7----7-7-7-7-|-5--------|-7----|
|-------------------|--------------------|----------|------|
|
|  W                  +H         H         W          W
|-------------------|--------------------|----------|------|
|--8----------------|-(8)-------12-------|----------|------|
|-------------------|--------------------|-4--------|-5----|
|-------------------|--------------------|----------|------|
|--7----------------|-(7)-------10-------|-2--------|-3----|
|-------------------|--------------------|----------|------|


 Chorus
                              Q.=120
                             12/8
                                   PM--|   PM  PM
   W           +H     H       Q.   E E E E E E E E E
|-----------|---------------|-------------------------|
|-----------|---------------|-------------------------|
|-11--------|-(11)----------|------------9---9---9-9--|
|-----------|---------6\----|-2----------9---9---9-9--|
|--9--------|--(9)----6\----|-2----2-2-2-7---7---7-7--|
|-----------|---------6\----|-0----0-0-0---0---0------|
|
|                                  PM--|   PM  PM
|  W           +H     H       Q.   E E E E E E E E E
|-----------|---------------|-------------------------|
|-----------|---------------|-------------------------|
|--7--------|--(7)----------|------------9---9---9-9--|
|-----------|---------6\----|-2----------9---9---9-9--|
|--5--------|--(5)----6\----|-2----2-2-2-7---7---7-7--|
|-----------|---------6\----|-0----0-0-0---0---0------|


       PM--|                    PM--|   PM  PM
  Q.   E E E E E E E E E   Q.   E E E E E E E E E
|------------------------|------------------------|
|------------------------|------------------------|
|------------9-9-9-9-9-9-|------------9---9---9-9-|
|-2----------9-9-9-9-9-9-|-2----------9---9---9-9-|
|-2----2-2-2-7-7-7-7-7-7-|-2----2-2-2-7---7---7-7-|
|-0----0-0-0-------------|-0----0-0-0---0---0-----|
|
|      PM--|                    PM--|   PM  PM
| Q.   E E E E E E E E E   Q.   E E E E E E E E E
|------------------------|------------------------|
|------------------------|------------------------|
|------------9-9-9-9-9-9-|------------9---9---9-9-|
|-2----------9-9-9-9-9-9-|-2----------9---9---9-9-|
|-2----2-2-2-7-7-7-7-7-7-|-2----2-2-2-7---7---7-7-|
|-0----0-0-0-------------|-0----0-0-0---0---0-----|


  PM-------------------|    ~~~~
  E E E  E  E  E  E  E  E   Q.
|---------------------------------|
|---------------------------------|
|---------------------------------|
|-6-6-6-----------9--9--9---------|
|-8-8-8--8--8--8-11-11-11-[10]----|
|-------10-10-10------------------|
|
| PM-------------------|    ~~~~
| E E E  E  E  E  E  E  E   Q.
|---------------------------------|
|---------------------------------|
|---------------------------------|
|-6-6-6-----------9--9--9--[8]----|
|-8-8-8--8--8--8-11-11-11---------|
|-------10-10-10------------------|


       PM--|   PM  PM
  Q.   E E E E E E E E E
|------------------------|
|------------------------|
|------------9---9---9-9-|
|-2----------9---9---9-9-|
|-2----2-2-2-7---7---7-7-|
|-0----0-0-0---0---0-----|
|
|      PM--|   PM  PM
| Q.   E E E E E E E E E
|------------------------|
|------------------------|
|------------9---9---9-9-|
|-2----------9---9---9-9-|
|-2----2-2-2-7---7---7-7-|
|-0----0-0-0---0---0-----|


       PM--|                                PM--|   PM  PM
  Q.   E E E  E   E   E   E   E   E    Q.   E E E E E E E E E
|------------------------------------|-------------------------|
|------------<5>-<5>-<5>-<5>-<5>-<5>-|-------------------------|
|------------<5>-<5>-<5>-<5>-<5>-<5>-|------------9---9---9-9--|
|-2----------<5>-<5>-<5>-<5>-<5>-<5>-|-2----------9---9---9-9--|
|-2----2-2-2-------------------------|-2----2-2-2-7---7---7-7--|
|-0----0-0-0-------------------------|-0----0-0-0---0---0------|
|
|      PM--|          PM          PM        PM--|   PM  PM
| Q.   E E E  E   E   E   E   E   E    Q.   E E E E E E E E E
|------------------------------------|-------------------------|
|------------------------------------|-------------------------|
|-------------9---9-------9---9------|------------9---9---9-9--|
|-2-----------9---9-------9---9------|-2----------9---9---9-9--|
|-2----2-2-2--7---7-------7---7------|-2----2-2-2-7---7---7-7--|
|-0----0-0-0----------0-----------0--|-0----0-0-0---0---0------|


          PM|   PM  PM  PM       PM--|   PM  PM           PM--|
  E E E E E E E E E E E E   Q.   E E E E E E E E E   Q.   E E E E E E E E E
|-------------------------|------------------------|-------------------------|
|-------------------------|------------------------|-------------------------|
|-5s4-4-4-----7---8---8---|------------9---9---9-9-|------------9-9-9-9-9-9--|
|-------------------------|-2----------9---9---9-9-|-2----------9-9-9-9-9-9--|
|-3s2-2-2-2-2-5---6---6---|-2----2-2-2-7---7---7-7-|-2----2-2-2-7-7-7-7-7-7--|
|-4s3-3-3-0-0-6-0-7-0-7-0-|-0----0-0-0---0---0-----|-0----0-0-0--------------|
|
|         PM|   PM  PM  PM       PM--|   PM  PM           PM--|
| E E E E E E E E E E E E   Q.   E E E E E E E E E   Q.   E E E E E E E E E
|-------------------------|------------------------|-------------------------|
|-------------------------|------------------------|-------------------------|
|-5s4-4-4-----7---8---8---|------------9---9---9-9-|------------9-9-9-9-9-9--|
|-------------------------|-2----------9---9---9-9-|-2----------9-9-9-9-9-9--|
|-3s2-2-2-2-2-5---6---6---|-2----2-2-2-7---7---7-7-|-2----2-2-2-7-7-7-7-7-7--|
|-4s3-3-3-0-0-6-0-7-0-7-0-|-0----0-0-0---0---0-----|-0----0-0-0--------------|


       PM--|   PM  PM
  Q.   E E E E E E E E E
|------------------------|
|------------------------|
|------------9---9---9-9-|
|-2----------9---9---9-9-|
|-2----2-2-2-7---7---7-7-|
|-0----0-0-0---0---0-----|
|
|      PM--|   PM  PM
| Q.   E E E E E E E E E
|------------------------|
|------------------------|
|------------9---9---9-9-|
|-2----------9---9---9-9-|
|-2----2-2-2-7---7---7-7-|
|-0----0-0-0---0---0-----|


  PM-------------------|    ~~~~        PM--|   PM  PM
  E E E  E  E  E  E  E  E   Q.     Q.   E E E E E E E E E
|--------------------------------|-------------------------|
|--------------------------------|-------------------------|
|--------------------------------|------------9---9---9-9--|
|-6-6-6-----------9--9--9--------|-2----------9---9---9-9--|
|-8-8-8--8--8--8-11-11-11-[10]---|-2----2-2-2-7---7---7-7--|
|-------10-10-10-----------------|-0----0-0-0---0---0------|
|
| PM-------------------|    ~~~~        PM--|   PM  PM
| E E E  E  E  E  E  E  E   Q.     Q.   E E E E E E E E E
|--------------------------------|-------------------------|
|--------------------------------|-------------------------|
|--------------------------------|------------9---9---9-9--|
|-6-6-6-----------9--9--9--[8]---|-2----------9---9---9-9--|
|-8-8-8--8--8--8-11-11-11--------|-2----2-2-2-7---7---7-7--|
|-------10-10-10-----------------|-0----0-0-0---0---0------|


       PM--|     PM    PM       PM--|   PM  PM              PM|   PM  PM
  Q.   E E E E E E E E E   Q.   E E E E E E E E E   E E E E E E E E E E E E
|------------------------|------------------------|--------------------------|
|------------------------|------------------------|--------------------------|
|------------9-9---9-9---|------------9---9---9-9-|-5s4-4-4-----7---8---8----|
|-2----------9-9---9-9---|-2----------9---9---9-9-|--------------------------|
|-2----2-2-2-7-7---7-7---|-2----2-2-2-7---7---7-7-|-3s2-2-2-2-2-5---6---6----|
|-0----0-0-0-----0-----0-|-0----0-0-0---0---0-----|-4s3-3-3-0-0-6-0-7-0-7----|
|
|      PM--|     PM    PM       PM--|   PM  PM              PM|   PM  PM
| Q.   E E E E E E E E E   Q.   E E E E E E E E E   E E E E E E E E E E E E
|------------------------|------------------------|--------------------------|
|------------------------|------------------------|--------------------------|
|------------9-9---9-9---|------------9---9---9-9-|-5s4-4-4-----7---8---8----|
|-2----------9-9---9-9---|-2----------9---9---9-9-|--------------------------|
|-2----2-2-2-7-7---7-7---|-2----2-2-2-7---7---7-7-|-3s2-2-2-2-2-5---6---6----|
|-0----0-0-0-----0-----0-|-0----0-0-0---0---0-----|-4s3-3-3-0-0-6-0-7-0-7----|


 4/4
  W            W          +W          3x Q  H.
|----------||-----------|-------------||----------*|
|----------||o----------|------------o||----------*|
|----------||-----------|-------------||----------*|
|----------||--2--------|-(2)---------||-2--------*|
|----------||o-2--------|-(2)--------o||-2--------*|
|----------||--0--------|-(0)---------||-0--------*|



Duration Legend
---------------
W - whole; H - half; Q - quarter; E - 8th; S - 16th; T - 32nd; X - 64th; a - acciaccatura
+ - note tied to previous; . - note dotted; .. - note double dotted
Uncapitalized letters represent notes that are staccato (1/2 duration)
Irregular groupings are notated above the duration line
Duration letters will always appear directly above the note/fret number it represents the
duration for.  Duration letters with no fret number below them represent rests.  Multi-
bar rests are notated in the form Wxn, where n is the number of bars to rest for.  Low
melody durations appear below the staff

Tablature Legend
----------------
 h   - hammer-on
 p   - pull-off
 b   - bend
 pb  - pre-bend
 r   - bend release (if no number after the r, then release immediately)
 /\  - slide into or out of (from/to "nowhere")
 s   - legato slide
 S   - shift slide
 - natural harmonic
[n]  - artificial harmonic
n(n) - tapped harmonic
 ~   - vibrato
 tr  - trill
 T   - tap
 TP  - trem. picking
 PM  - palm muting
\n/  - tremolo bar dip; n = amount to dip
 \n  - tremolo bar down
 n/  - tremolo bar up
/n\  - tremolo bar inverted dip
 =   - hold bend; also acts as connecting device for hammers/pulls
 <> - volume swell (louder/softer)
 x   - on rhythm slash represents muted slash
 o   - on rhythm slash represents single note slash

Misc Legend
-----------
 |  - bar
||  - double bar
||o - repeat start
o|| - repeat end
*|  - double bar (ending)
 :  - bar (freetime)
 $  - Segno
 &  - Coda
Tempo markers -  = BPM(8/16=s8/s16), where s8 = swing 8ths, s16 = swing 16ths

Добавлено: 12.06.2012
Другие материалы по этой песне:

Страница создана 16.04.2012
http://primanota.ru/beecher/i-wont-miss-or-be-missed-chords.htm
Привет, Гость.
Предлагаем пройти революционный курс по гитаре.
Подарок от PrimaNota.Ru, забирай!