PrimaNota.ru - самый крупный в мире бесплатный архив песенных текстов, аккордов, табулатур и нот


Bee Gees - Massachussets - бас-таба, видео

Регистрация Запомнить меня
Войти через:  Facebook Google Twitter Vk Yandex Mail.ru

Bee Gees - Massachussets - бас-таба, видео

Печатать
Просмотров: 141
bee gees_massachussets

TablEdited by Jan Bjorklund, Finland  jani_bjorklund@yahoo.se>
You are welcome to request for tabs!
Fingering and positions as suggested by TablEdit, please use common sense!


TablEdited by Jan Bjorklund
Tuning : E A D G 	Time Signature: 4/4

   |               |               |               |
|------------------------------------------------------------------|
|-----------------------------------------------0---------0--------|
|------------------------------------------------------------------|
|-------------3----------------------------------------------------|

   |               |               |               |
|------------------------------------------------------------------|
|-----------------------------------------------------0---------0--|
|------------------------------------------------------------------|
|-0-------2---------3-------3-----------------3--------------------|

   |               |               |               |
|------------------------------------------------------------------|
|-------0-------0-------------------------------------------0------|
|------------------------------------------------------------------|
|-------------------------3----------------------------------------|

   |               |               |               |
|------------------------------------------------------------------|
|-----0-------0-------0--------------------------------------------|
|------------------------------------------------------------------|
|-------------------------------3----------------------------------|

   |               |               |               |
|------------------------------------------------------------------|
|-0---------0-------0---------0------------------------------------|
|------------------------------------------------------------------|
|-------------------------------------3-------------------------3--|

   |               |               |               |
|------------------------------------------------------------------|
|-------0----------------------------------------------------------|
|-------------------------------------------0----------------------|
|-------------------------3----------------------------------------|

   |               |               |               |
|------------------------------------------------------------------|
|------------------------------------------------------------------|
|-----2---------3--------------------------------------------------|
|-----------------------------------------0-------3----------------|

   |               |               |               |
|------------------------------------------------------------------|
|---------------------0---------------0----------------------------|
|------------------------------------------------------------------|
|-------------------------------------------------------3----------|

   |               |               |               |
|------------------------------------------------------------------|
|---------------------------0-------0-------0---------0------------|
|------------------------------------------------------------------|
|-----------------3-------------------------------------------3----|

   |               |               |               |
|------------------------------------------------------------------|
|---------------------------------0--------------------------------|
|------------------------------------------------------------------|
|-----------------------3-------------------------3----------------|

   |               |               |               |
|------------------------------------------------------------------|
|------------------------------------------------------------------|
|---0-------------------------2---------3--------------------------|
|------------------------------------------------------------------|

   |               |               |               |
|------------------------------------------------------------------|
|---------------------------------------------0-----------------0--|
|------------------------------------------------------------------|
|-0-------3--------------------------------------------------------|

   |               |               |               |
|---------------------------------------------------0-------0------|
|------------------------------------------------------------------|
|------------------------------------------------------------------|
|---------------3--------------------------------------------------|

   |               |               |               |
|------------------------------------------------------------------|
|-----0-------0----------------------------------------------------|
|---------3--------------------------------------------------------|
|---------------------3---------3-------3---------3---3---3--------|

   |               |               |               |
|------------------------------------------------------------------|
|------------------------------------------------------------------|
|------------------------------------------------------------------|
|-3---------3-------3-------3---------3-------3---------3---3---3--|

   |               |               |               |
|------------------------------------------------------------------|
|-------------------------0----------------------------------------|
|-----------------------------------3-------3-------3---------3----|
|-------3---------3------------------------------------------------|

   |               |               |               |
|------------------------------------------------------------------|
|------------------------------------------------------------------|
|-3---3-------3---------3-------3---------3-------3-------3--------|
|------------------------------------------------------------------|

   |               |               |               |
|------------------------------------------------------------------|
|------------------------------------------------------------------|
|---3---3---3-------3---------3-------3----------------------------|
|-----------------------------------------------3-------3-------3--|

   |               |               |               |
|------------------------------------------------------------------|
|-----------------------------------------------------0-------0----|
|------------------------------------------------------------------|
|---------3---3---3---------3-------3-------3----------------------|

   |               |               |               |
|------------------------------------------------------------------|
|-----0---------0---0---0---------0--------------------------------|
|------------------------------------------------------------------|
|-----------------------------------------0-------2---------3------|

   |               |               |               |
|------------------------------------------------------------------|
|-----------------------------0-----------------0------------------|
|------------------------------------------------------------------|
|---------------------3--------------------------------------------|

   |               |               |               |
|------------------------------------------------------------------|
|-0-------0---------0-------0-------0---------0--------------------|
|------------------------------------------------------------------|
|-----------------------------------------------------0-------2----|

   |               |               |               |
|------------------------------------------------------------------|
|-----------------------------------------0------------------------|
|------------------------------------------------------------------|
|-------3-------------------------3-------------------------3------|

   |               |               |               |
|------------------------------------------------------------------|
|------------------------------------------------------------------|
|-------------0-------------------------0-------3------------------|
|------------------------------------------------------------------|

   |               |               |               |
|------------------------------------------------------------------|
|-----------0-----------------------------------------0------------|
|------------------------------------------------------------------|
|-------------------3----------------------------------------------|

   |               |               |               |
|------------------------------------------------------------------|
|-------0-----------------------------------------------------0----|
|------------------------------------------------------------------|
|-------------------------3-------------------------3--------------|

   |               |               |               |
|------------------------------------------------------------------|
|-----0-------0---------0------------------------------------------|
|------------------------------------------------------------------|
|-------------------------------3-------------------------3--------|

   |               |               |               |
|------------------------------------------------------------------|
|---0--------------------------------------------------------------|
|-------------------------------------0-------------------------0--|
|-------------------3----------------------------------------------|

   |               |               |               |
|------------------------------------------------------------------|
|-----------------------------------0------------------------------|
|---------3--------------------------------------------------------|
|-------------------------------------------3----------------------|

   |               |               |               |
|------------------------------------------------------------------|
|---------------0---------------0----------------------------------|
|------------------------------------------------------------------|
|-------------------------------------------------3----------------|

   |               |               |               |
|------------------------------------------------------------------|
|---------------------0-------0---------0-------0------------------|
|------------------------------------------------------------------|
|-----------3-------------------------------------------3----------|

   |               |               |               |
|------------------------------------------------------------------|
|------------------------------------------------------------------|
|------------------------------------------------------------------|
|-3-------3-------3-----3---3-------3---------3-------3-------3----|

   |               |               |               |
|------------------------------------------------------------------|
|-----------------------------------------------------------0------|
|------------------------------------------------------------------|
|-------3-------3-------3-----3---3-------3---------3--------------|

   |               |               |               |
|------------------------------------------------------------------|
|------------------------------------------------------------------|
|---3---------3-------3-------3-----3---3-------3---------3--------|
|------------------------------------------------------------------|

   |               |               |               |
|------------------------------------------------------------------|
|------------------------------------------------------------------|
|-3-------3---------3-------3---------3---3---3-------3---------3--|
|------------------------------------------------------------------|

   |               |               |               |
|------------------------------------------------------------------|
|------------------------------------------------------------------|
|-------0----------------------------------------------------------|
|-----------------3-------3-------3---------3---3---3-------3------|

   |               |               |               |
|------------------------------------------------------------------|
|-----------------------0---------------0-------------0---0--------|
|------------------------------------------------------------------|
|-----3-------3----------------------------------------------------|

   |               |               |               |
|------------------------------------------------------------------|
|---------------------------------------------------------------0--|
|------------------------------------------------------------------|
|-0-----------------2---------3---------------3-------------3------|

   |               |               |               |
|------------------------------------------------------------------|
|-------0---------------------------0-------0-------0---------0----|
|------------------------------------------------------------------|
|-----------------0-------3----------------------------------------|

   |               |               |               |
|------------------------------------------------------------------|
|-----0---------0-----------0---------0----------------------------|
|-----------------------3-------3----------------------------------|
|-----------------------------------------3------------------------|

   |               |               |               |
|------------------------------------------------------------------|
|-----------0------------------------------------------------------|
|------------------------------------------------------------------|
|---3-------------------------3------------------------------------|


Created with TablEdit http://www.tabledit.com/

     
Добавлено: 02.11.2013
Другие материалы по этой песне:
  • Аккорды и текст

Страница создана 02.11.2013
http://primanota.ru/bee-gees/massachussets-chords.htm
Привет, Гость.
Предлагаем пройти революционный курс по гитаре.
Подарок от PrimaNota.Ru, забирай!