PrimaNota.ru - самый крупный в мире бесплатный архив песенных текстов, аккордов, табулатур и нот


Bee Gees - How Do You Mend A Broken Heart - бас-таба, видео

Регистрация Запомнить меня
Войти через:  Facebook Google Twitter Vk Yandex Mail.ru

Bee Gees - How Do You Mend A Broken Heart - бас-таба, видео

Печатать
Просмотров: 168
Уроки эстрадного вокала в Санкт-Петербурге
bee gees_how do you mend a broken heart

TablEdited by Jan Bjorklund, Finland  jani_bjorklund@yahoo.se>
You are welcome to request for tabs!
Fingering and positions as suggested by TablEdit, please use common sense!


TablEdited by Jan Bjorklund
Tuning : E A D G 	Time Signature: 4/4

   |               |               |               |
|-------------------------------------------------4----------------|
|------------------------------------------------------------------|
|------------------------------------------------------------------|
|------------------------------------------------------------------|

   |               |               |               |
|------------------------------------------------------------------|
|-2----------------------------------------------------------------|
|------------------------------------------------------------------|
|------------------------------------------------------------------|

   |               |               |               |
|------------------------------------------------------------------|
|------------------------------------------------------------------|
|------------------------------------------------------------------|
|------------------------------------------------------------------|

   |               |               |               |
||-----------------------------------------------------------------|
|*-----------------------------------------------------------------|
|*-----------------------------------------------------------------|
||-----------------------------------------------------------------|

   |               |               |               |
|-----------------------------------------------------------------||
|-----------------------------------------------------------------*|
|-----------------------------------------------------------------*|
|-----------------------------------------------------------------||

   |               |               |               |
|------------------------------------------------------------------|
|---------------------------------1--------------------------------|
|------------------------------------------------------------------|
|-4-------------------------4---------------------4----------------|

   |               |               |               |
|------------------------------------------------------------------|
|------------------------------------------------------------------|
|-4-------------------------4---------------------4----------------|
|---------------------------------4--------------------------------|

   |               |               |               |
|------------------------------------------------------------------|
|-4-------------------------4---------------------4----------------|
|---------------------------------4-------------------------4------|
|------------------------------------------------------------------|

   |               |               |               |
|------------------------------------------------------------------|
|------------------------------------------------------------------|
|-2-------------------------2---------------------2----------------|
|---------------------------------2--------------------------------|

   |               |               |               |
|------------------------------------------------------------------|
|------------------------------------------------------------------|
|-2----------------------------------------------------------------|
|------------------------------------------------------------------|

   |               |               |               |
||-----------------------------------------------------------------|
|*--------------------------------2-------------------2------------|
|*----------------------------------------------------------2------|
||0-------------------------0--------------------------------------|

   |               |               |               |
|------------------------------------------------------------------|
|---------------------------------2--------------------------------|
|------------------------------------------------------------------|
|-0-------------------------0---------------------0----------------|

   |               |               |               |
|------------------------------------------------------------------|
|---------------------------------4-------------------4------------|
|-2-------------------------2-------------------------------4------|
|------------------------------------------------------------------|

   |               |               |               |
|------------------------------------------------------------------|
|---------------------------------4---------------4---------4------|
|-2-------------------------2-------------------------4------------|
|------------------------------------------------------------------|

   |               |               |               |
|-----------------2-------------------------------4----------------|
|-----------------------------------------------------4------------|
|---------------------------------2-------------------------2------|
|-5-------------------------5--------------------------------------|

   |               |               |               |
|-----------------2-------------------------------4---------4------|
|-----------------------------------------------------4------------|
|---------------------------------2--------------------------------|
|-5-------------------------5--------------------------------------|

   |               |               |               |
|-----------------------------------------------------------------||
|-----------------------------------------------------------------||
|-2-------------------------2-----2-------------------------2-----||
|-----------------------------------------------------------------||

 >1|               |               |               |
|-23--------------------------------------------------------------||
|-2-----------------------------------------------2---------------*|
|-----------------------------------------------------------------*|
|---------------------------------0-------------------------------||

 >2|               |               |               |
|------------------------------------------------------------------|
|-2-----------------------------------------------2----------------|
|------------------------------------------------------------------|
|---------------------------------0--------------------------------|

   |               |               |               |
|------------------------------------------------------------------|
|-2-------------------------------2--------------------------------|
|-----------------------------------------------------2------------|
|-----------------------------------------------------------0------|

   |               |               |               |
|------------------------------------------------------------------|
|---------------------------------2-------------------------2------|
|---------------------------2--------------------------------------|
|-0-------------------0--------------------------------------------|

   |               |               |               |
|------------------------------------------------------------------|
|---------------------------------2--------------------------------|
|-----------------------------------------------------------2------|
|-0---------------------------------------------------0------------|

   |               |               |               |
|------------------------------------------------------------------|
|---------------------------------4-------------------4------------|
|-----------------------------------------------------------4------|
|-2----------------------------------------------------------------|

   |               |               |               |
|------------------------------------------------------------------|
|-2-------------------2---------------------------2----------------|
|---------------------------2--------------------------------------|
|---------------------------------0--------------------------------|

   |               |               |               |
|------------------------------------------------------------------|
|-2-----------------------------------------------2----------------|
|------------------------------------------------------------------|
|---------------------------------0--------------------------------|

   |               |               |               |
|------------------------------------------------------------------|
|-2-----------------------------------------------2----------------|
|------------------------------------------------------------------|
|---------------------------------0--------------------------------|

   |               |               |               |
|------------------------------------------------------------------|
|-2-----------------------------------------------2----------------|
|------------------------------------------------------------------|
|---------------------------------0--------------------------------|

   |               |               |               |
|------------------------------------------------------------------|
|-2----------------------------------------------------------------|
|------------------------------------------------------------------|
|------------------------------------------------------------------|

   |               |               |               |
|------------------------------------------------------------------|
|------------------------------------------------------------------|
|------------------------------------------------------------------|
|------------------------------------------------------------------|

   |               |               |               |
|------------------------------------------------------------------|
|------------------------------------------------------------------|
|------------------------------------------------------------------|
|-0----------------------------------------------------------------|




Created with TablEdit http://www.tabledit.com/

     
Добавлено: 18.07.2013
Другие материалы по этой песне:
  • Аккорды и текст

Страница создана 18.07.2013
http://primanota.ru/bee-gees/how-do-you-mend-a-broken-heart-chords.htm
Привет, Гость.
Предлагаем пройти революционный курс по гитаре.
Подарок от PrimaNota.Ru, забирай!