PrimaNota.ru - самый крупный в мире бесплатный архив песенных текстов, аккордов, табулатур и нот


Bedroom-audio - ไม่บอกเธอ - бас-таба, видео

Регистрация Запомнить меня
Войти через:  Facebook Google Twitter Vk Yandex Mail.ru

Bedroom-audio - ไม่บอกเธอ - бас-таба, видео

Печатать
Просмотров: 23
-------------------------------------------------------------------------------
                               ไม่บอกเธอ-Bedroom Audio
-------------------------------------------------------------------------------
Tabbed by: Tonkla
E-mail: kthongprasan@gmail.com FB:Tonkla Kongpha Lavigne

Tuning:Standard

Intro

G|---------------------------------------------------------------------------|
D|---------------------------------------------------------------------------|
A|---------------------------------------------------------------------------|
E|----0--------------4---------------5---------------7-----------------------|

Verse

  อยากขยับเข้าไปใกล้เธออยากรู้จักตั้งแต่ได้เจอ 

G|---------------------------------------------------------------------------|
D|---------------------------------------------------------------------------|
A|------------------------------------0--------------------------------------|
E|--------------0------------------------------------------------------------|

  ใจฉันสั่นเมื่อได้ยินเสียงเธอตั้งแต่วันแรกเจอก็เผลอเอาไปคิดละเมอ

G|---------------------------------------------------------------------------|
D|---------------------------------------------------------------------------|
A|-----------------------------------------------0--------------0------------|
E|---------------------4------------7----------------------------------------|

  พอรู้จักก็อยากจะทักทายพอไม่เจอแล้วใจก็วุ่นวาย 

G|---------------------------------------------------------------------------|
D|---------------------------------------------------------------------------|
A|-------------------------------------------0------0------------------------|
E|---------------------0---0-------------------------------------------------|

  เธอหายไปก็ห่วงเธอแทบตายจะเป็นเช่นไรตรงนั้นมีใครดูแลหรือไม่ก็ไม่รู้

G|---------------------------------------------------------------------------|
D|---------------------------------------------------------------------------|
A|--------------------------------------------0---------------0--------------|
E|----------------4---------------7------------------------------------------|

Pre-Chorus

    เกือบลืมหายใจเมื่อเธอเข้ามาใกล้ๆ 

G|---------------------------------------------------------------------------|
D|---------------------------------------------------------------------------|
A|---------------------------------------------------------------------------|
E|2-------------2-----------------5-------------5----------------------------|

    แค่เธอยิ้มมาก็สั่นไปทั้งหัวใจ 

G|---------------------------------------------------------------------------|
D|---------------------------------------------------------------------------|
A|---------------------------------------------------------------------------|
E|2------------2-------5-----------------------------------------------------|

  อยากจะบอกเธอให้ได้รับรู้ความในใจ

G|---------------------------------------------------------------------------|
D|---------------------------------------------------------------------------|
A|---------------------------------------------------------------------------|
E|------7-------------------------0------------------------------------------|

Chorus

  แต่บอกตอนนี้ไม่รู้จะเร็วไปหรือไม่

G|---------------------------------------------------------------------------|
D|---------------------------------------------------------------------------|
A|---------------------------------------------------------------------------|
E|12\--------------0--0--0--0--0--0--0--0--0--0--0--0--0--0------------------|

  ก็ยังไม่รู้ว่าเธอคิดเช่นไร

G|---------------------------------------------------------------------------|
D|---------------------------------------------------------------------------|
A|---------------------------------------------------------------------------|
E|0--0--4--4--4--4--4--4--4--4--4--4--4--4--4--4-----------------------------|

  ถ้าบอกคำนั้นแล้วเธอตอบมาว่าไม่ใช่

G|---------------------------------------------------------------------------|
D|---------------------------------------------------------------------------|
A|---------------------------------------------------------------------------|
E|4--4--5--5--5--5--5--5--5--5--5--5--5--5--5--5-----------------------------|

  ถ้าเป็นแบบนี้เธอคงจะเดินหนีไป

G|---------------------------------------------------------------------------|
D|---------------------------------------------------------------------------|
A|---------------------------------------------------------------------------|
E|5--5--7--7--7--7--7--7--7--7--7--7--7--7--7--7--7--7-----------------------|

  ดีพอแล้วที่ได้มีเธออยู่ใกล้ๆ

G|---------------------------------------------------------------------------|
D|---------------------------------------------------------------------------|
A|---------------------------------------------------------------------------|
E|--0--0--0--0--0--0--0--0--0--0--0--0--0--0---------------------------------|

  ได้ยินเสียง ได้คอยดูแลอยู่ไม่ไกล

G|---------------------------------------------------------------------------|
D|---------------------------------------------------------------------------|
A|---------------------------------------------------------------------------|
E|0--0--4--4--4--4--4--4--4--4--4--4--4--4--4--4-----------------------------|

  จะซ่อนความลับเอาไว้ในหัวใจ 

G|---------------------------------------------------------------------------|
D|---------------------------------------------------------------------------|
A|---------------------------------------------------------------------------|
E|4--4--5--5--5--5--5--5--5--5--5--5--5--5--5--5-----------------------------|

  มากเพียงไหนฉันจะไม่ยอมพูดไป

G|---------------------------------------------------------------------------|
D|---------------------------------------------------------------------------|
A|---------------------------------------------------------------------------|
E|5--5--7--7--7--7--7--7--7--7--7--7--7--7--7--7-----------------------------|

Intru

G|---------------------------------------------------------------------------|
D|---------------------------------------------------------------------------|
A|---------------------------------------------------------------------------|
E|0--0--0--0--0--0--0--0--0--0--0--0--0--0--0--0-----------------------------|

G|---------------------------------------------------------------------------|
D|---------------------------------------------------------------------------|
A|0--0--0--0--0--0--0--0--0--0--0--0--0--0--0--0-----------------------------|
E|---------------------------------------------------------------------------|

G|---------------------------------------------------------------------------|
D|---------------------------------------------------------------------------|
A|---------------------------------------------------------------------------|
E|4--4--4--4--4--4--4--4--7--7--7--7--7--7--7--7-----------------------------|

G|---------------------------------------------------------------------------|
D|---------------------------------------------------------------------------|
A|0--0--0--0--0--0--0--0--0--0--0--0--0--0--0--0-----------------------------|
E|---------------------------------------------------------------------------|

Verse

  อยากจะบอกให้เธอได้รู้ใจ 
G|---------------------------------------------------------------------------|
D|---------------------------------------------------------------------------|
A|---------------------------------------------------------------------------|
E|0--0--0--0--0--0--0--0--0--0--0--0--0--0--0--0-----------------------------|

  ที่จริงก็อยากจะบอกคำนั้นไป 

G|---------------------------------------------------------------------------|
D|---------------------------------------------------------------------------|
A|0--0--0--0--0--0--0--0--0--0--0--0--0--0--0--0-----------------------------|
E|---------------------------------------------------------------------------|

  แต่กลัวเหลือเกิน ว่าจะต้องเสียใจ หากเธอรับไม่ได้

G|---------------------------------------------------------------------------|
D|---------------------------------------------------------------------------|
A|---------------------------------------------------------------------------|
E|4--4--4--4--4--4--4--4--7--7--7--7--7--7--7--7-----------------------------|

  เธอคงไม่ยอมให้อภัย กับคำนั้น

G|---------------------------------------------------------------------------|
D|---------------------------------------------------------------------------|
A|0--0--0--0--0--0--0--0--0--0--0--0--0--0--0--0-----------------------------|
E|---------------------------------------------------------------------------|

  Pre-Chorus

  อึดอัดเหลือเกิน ต้องเก็บเอาไว้ข้างใน 

G|---------------------------------------------------------------------------|
D|---------------------------------------------------------------------------|
A|---------------------------------------------------------------------------|
E|2--2--2--2--2--2--2--2--2--2--2--2--2--2--2--2-----------------------------|

G|---------------------------------------------------------------------------|
D|---------------------------------------------------------------------------|
A|---------------------------------------------------------------------------|
E|5--5--5--5--5--5--5--5--5--5--5--5--5--5--5--5-----------------------------|


  อึดอัดหัวใจแต่ก็กลัวว่าถ้าพูดไป กลัวว่าจะต้องเสียใจ
 
G|---------------------------------------------------------------------------|
D|---------------------------------------------------------------------------|
A|---------------------------------------------------------------------------|
E|2--2--2--2--2--2--2--2--2--2--2--2--2--2--2--2-----------------------------|

G|---------------------------------------------------------------------------|
D|---------------------------------------------------------------------------|
A|---------------------------------------------------------------------------|
E|5--5--5--5--5--5--5--5--7--7--7--7--7--7--7--7--0--0--0--0--0--0--0--0--0--|

Chorus
แต่บอกตอนนี้ไม่รู้จะเร็วไปหรือไม่

G|---------------------------------------------------------------------------|
D|---------------------------------------------------------------------------|
A|---------------------------------------------------------------------------|
E|12\--------------0--0--0--0--0--0--0--0--0--0--0--0--0--0------------------|

  ก็ยังไม่รู้ว่าเธอคิดเช่นไร

G|---------------------------------------------------------------------------|
D|---------------------------------------------------------------------------|
A|---------------------------------------------------------------------------|
E|0--0--4--4--4--4--4--4--4--4--4--4--4--4--4--4-----------------------------|

  ถ้าบอกคำนั้นแล้วเธอตอบมาว่าไม่ใช่

G|---------------------------------------------------------------------------|
D|---------------------------------------------------------------------------|
A|---------------------------------------------------------------------------|
E|4--4--5--5--5--5--5--5--5--5--5--5--5--5--5--5-----------------------------|

  ถ้าเป็นแบบนี้เธอคงจะเดินหนีไป

G|---------------------------------------------------------------------------|
D|---------------------------------------------------------------------------|
A|---------------------------------------------------------------------------|
E|5--5--7--7--7--7--7--7--7--7--7--7--7--7--7--7--7--7-----------------------|

  ดีพอแล้วที่ได้มีเธออยู่ใกล้ๆ

G|---------------------------------------------------------------------------|
D|---------------------------------------------------------------------------|
A|---------------------------------------------------------------------------|
E|--0--0--0--0--0--0--0--0--0--0--0--0--0--0---------------------------------|

  ได้ยินเสียง ได้คอยดูแลอยู่ไม่ไกล

G|---------------------------------------------------------------------------|
D|---------------------------------------------------------------------------|
A|---------------------------------------------------------------------------|
E|0--0--4--4--4--4--4--4--4--4--4--4--4--4--4--4-----------------------------|

  จะซ่อนความลับเอาไว้ในหัวใจ 

G|---------------------------------------------------------------------------|
D|---------------------------------------------------------------------------|
A|---------------------------------------------------------------------------|
E|4--4--5--5--5--5--5--5--5--5--5--5--5--5--5--5-----------------------------|

  มากเพียงไหนฉันจะไม่ยอมพูดไป

G|---------------------------------------------------------------------------|
D|---------------------------------------------------------------------------|
A|---------------------------------------------------------------------------|
E|5--5--7--7--7--7--7--7--7--7--7--7--7--7--7--7-----------------------------|

Bridge

  มองกันให้ดีเธอก็คงรู้ ในความห่วงใยฉันมีอะไร
  ซ่อนอยู่ ที่ยังไม่รู้คือเธอนั้นคิดอย่างไร

G|---------------------------------------------------------------------------|
D|---------------------------------------------------------------------------|
A|---------------------------------------------------------------------------|
E|0------------------4---------------------5----------------------7----------|

  มองกันให้ดีเธอก็คงจะเห็น ความจริงที่เป็น
  ว่าฉันคิดอะไร หนึ่งคำนั้นที่ยังไม่ได้พูดไป

G|----------------------------------------------------------------------------------------------|
D|----------------------------------------------------------------------------------------------|
A|----------------------------------------------------------------------------------------------|
E|0--0--0--0--0--0--0--0--0--0--0--0--0--0--0--0--4--4--4--4--4--4--4--4--4--4--4--4--4--4--4--4|

G|----------------------------------------------------------------------------------------------|
D|----------------------------------------------------------------------------------------------|
A|----------------------------------------------------------------------------------------------|
E|5--5--5--5--5--5--5--5--5--5--5--5--5--5--5--5--7--7--7--7--7--7--7--7--7--7--7--7--7--7--7--7|

Chorus

  จะเก็บเอาไว้ในวันที่เธอเผยใจ
G|---------------------------------------------------------------------------|
D|---------------------------------------------------------------------------|
A|---------------------------------------------------------------------------|
E|12\--------------0--0--0--0--0--0--0--0--0--0--0--0--0--0------------------|
 
  รอวันนั้นวันที่ฉันแน่ใจ 

G|---------------------------------------------------------------------------|
D|---------------------------------------------------------------------------|
A|---------------------------------------------------------------------------|
E|0--0--4--4--4--4--4--4--4--4--4--4--4--4--4--4-----------------------------| 

  ว่าวันนี้เธอคิดว่าฉันนั้นใช่ 

G|---------------------------------------------------------------------------|
D|---------------------------------------------------------------------------|
A|---------------------------------------------------------------------------|
E|4--4--5--5--5--5--5--5--5--5--5--5--5--5--5--5-----------------------------|

  และเธอพร้อมจะฟังความข้างใน  

G|---------------------------------------------------------------------------|
D|---------------------------------------------------------------------------|
A|---------------------------------------------------------------------------|
E|5--5--7--7--7--7--7--7--7--7--7--7--7--7--7--7--7--7-----------------------|


  ถ้ายังไม่ชัด ฟังอีกครั้งก็ได้ 


  จะบอกว่ารักให้เธอได้ยินใกล้ๆได้ยินไหมว่ารักเธอทั้งหัวใจ

G|---------------------------------------------------------------------------|
D|---------------------------------------------------------------------------|
A|---------------------------------------------------------------------------|
E|--0--0--0--0--0--0--0--0--0--0--0--0--0--0---------------------------------|

  บอกว่ารักเธอได้ยินหรือไม่

G|---------------------------------------------------------------------------|
D|---------------------------------------------------------------------------|
A|---------------------------------------------------------------------------|
E|0--0--4--4--4--4--4--4--4--4--4--4--4--4--4--4-----------------------------|

   ถ้ายังไม่ชัด ฟังอีกครั้งก็ได้ 

G|---------------------------------------------------------------------------|
D|---------------------------------------------------------------------------|
A|---------------------------------------------------------------------------|
E|4--4--5--5--5--5--5--5--5--5--5--5--5--5--5--5-----------------------------|

 ได้ยินไหมว่ารักเธอทั้งหัวใจ

G|---------------------------------------------------------------------------|
D|---------------------------------------------------------------------------|
A|---------------------------------------------------------------------------|
E|5--5--7--7--7--7--7--7--7--7--7--7--7--7--7--7-----------------------------|

Outro

G|---------------------------------------------------------------------------|
D|---------------------------------------------------------------------------|
A|---------------------------------------------------------------------------|
E|0--0--0--0--0--0--0--0--0--0--0--0--0--0--0--0-----------------------------|

G|---------------------------------------------------------------------------|
D|---------------------------------------------------------------------------|
A|0--0--0--0--0--0--0--0--0--0--0--0--0--0--0--0-----------------------------|
E|---------------------------------------------------------------------------|

G|---------------------------------------------------------------------------|
D|---------------------------------------------------------------------------|
A|---------------------------------------------------------------------------|
E|4--4--4--4--4--4--4--4--7--7--7--7--7--7--7--7-----------------------------|

G|---------------------------------------------------------------------------|
D|---------------------------------------------------------------------------|
A|0--0--0--0--0--0--0--0--0--0--0--0--0--0--0--0-----------------------------|
E|---------------------------------------------------------------------------|

G|---------------------------------------------------------------------------|
D|---------------------------------------------------------------------------|
A|---------------------------------------------------------------------------|
E|0--0--0--0--0--0--0--0--0--0--0--0--0--0--0--0-----------------------------|

G|---------------------------------------------------------------------------|
D|---------------------------------------------------------------------------|
A|0--0--0--0--0--0--0--0--0--0--0--0--0--0--0--0-----------------------------|
E|---------------------------------------------------------------------------|

G|---------------------------------------------------------------------------|
D|---------------------------------------------------------------------------|
A|---------------------------------------------------------------------------|
E|4--4--4--4--4--4--4--4--7--7--7--7--7--7--7--7-----------------------------|

G|---------------------------------------------------------------------------|
D|---------------------------------------------------------------------------|
A|0--0--0--0--0--0--0--0--0--0--0--0--0--0--0--0-----------------------------|
E|--------------------------------------------------------------0------------|





| /  slide up
| \  slide down
| h  hammer-on
| p  pull-off
| ~  vibrato
| +  harmonic
| x  Mute note
===============================================================================
Добавлено: 08.06.2016
Другие материалы по этой песне:
  • Аккорды и текст

Страница создана 08.06.2016
http://primanota.ru/bedroom-audio/-chords.htm
Привет, Гость.
Предлагаем пройти революционный курс по гитаре.
Подарок от PrimaNota.Ru, забирай!