PrimaNota.ru - самый крупный в мире бесплатный архив песенных текстов, аккордов, табулатур и нот


Bedouin Soundclash - Trinco Dog - таба, бас-таба, видео

Регистрация Запомнить меня
Войти через:  Facebook Google Twitter Vk Yandex Mail.ru

Bedouin Soundclash - Trinco Dog - таба, бас-таба, видео

Печатать
Просмотров: 158
Авторы: Bedouin Soundclash

Hey Everyone!
    I'm Alex, and I tabbed this transcendent song by a great Canadian band, Bedouin
 I've been learning guitar for a little under half a year now and I decided that I was ready
submit my first tab, ever - and that I was going to do it right.  It's a very easy song 
play, and I hope you enjoy!  Critism is very much welcome, and please rate.

Band: Bedouin Soundclash
Song: Trinco Dog
Time: 2m 58s
Album: Street Gospels
Year: 2007
Label: Dine Alone Records
Tabbed By: Alex Gebert (gebert.alexander@gmail.com) - Suggestions and comments welcome :).

				  [INTRO]

e ||6-6-----6-6-----|6-6-----6-6-----|6-6-----6-6-----|6-6-----6-6-----|
B ||6-6-----6-6-----|6-6-----6-6-----|6-6-----6-6-----|6-6-----6-6-----|
G ||----------------|----------------|----------------|----------------|
D ||----------------|----------------|----------------|----------------|
A ||----------------|----------------|----------------|----------------|
E ||----------------|----------------|----------------|----------------|
4/4|1 + 2 + 3 + 4 + |1 + 2 + 3 + 4 + |1 + 2 + 3 + 4 + |1 + 2 + 3 + 4 + |

    Trinco dog have you sang your last song?  Cause you look tired today...
    Still I can't find the words to play, and there's nothing left you can say.

e ||6-6-----6-6-----|5-5-----6-6-----|6-6-----6-6-----|5-5-----5-5-----|
B |.6-6-----6-6-----|6-6-----6-6-----|6-6-----6-6-----|6-6-----6-6-----|
G ||----------------|----------------|----------------|----------------|
D ||----------------|----------------|----------------|----------------|
A |.----------------|----------------|----------------|----------------|
E ||----------------|----------------|----------------|----------------|
4/4|1 + 2 + 3 + 4 + |1 + 2 + 3 + 4 + |1 + 2 + 3 + 4 + |1 + 2 + 3 + 4 + |

    But if you keep walking, there's people talking, and a band that might play.  Trinco
sang a song...
    The road we travelled is rock and gravel, and there's nothing for pay.  Trinco dog
a song...

e ||3-3-----5-5-----|6-6-----8-8-----|6-6-----5-5-----|6-6-----6-6-----|
B ||4-4-----6-6-----|6-6-----8-8-----|6-6-----6-6-----|6-6-----6-6-----|
G ||----------------|----------------|----------------|----------------|
D ||----------------|----------------|----------------|----------------|
A ||----------------|----------------|----------------|----------------|
E ||----------------|----------------|----------------|----------------|
4/4|1 + 2 + 3 + 4 + |1 + 2 + 3 + 4 + |1 + 2 + 3 + 4 + |1 + 2 + 3 + 4 + |

                     ...Band play along...            ...So boy sing a song...
                     ...Band play along...            ...So boy sing your song...

e ||--5---5---5---5-|--5---5---5---5-|--6---6---6---6-|--6---6---6---6-|
B ||--6---6---6---6-|--6---6---6---6-|--6---6---6---6-|--6---6---6---6-|
G ||----------------|----------------|----------------|----------------|
D ||----------------|----------------|----------------|----------------|
A ||----------------|----------------|----------------|----------------|
E ||----------------|----------------|----------------|----------------|
4/4|1 + 2 + 3 + 4 + |1 + 2 + 3 + 4 + |1 + 2 + 3 + 4 + |1 + 2 + 3 + 4 + |

 ...You know you couldn't go wrong... Woah...Oh (x7)... (A song, song)

e ||--5---5---5---5-|--5---5---5---5-|3-3-3-555-5-5-66|6-6-6-888-8-8-66|
B ||--6---6---6---6-|--6---6---6---6-|4-4-4-666-6-6-66|6-6-6-888-8-8-66|
G ||----------------|----------------|----------------|----------------|
D ||----------------|----------------|----------------|----------------|
A ||----------------|----------------|----------------|----------------|
E ||----------------|----------------|----------------|----------------|
4/4|1 + 2 + 3 + 4 + |1 + 2 + 3 + 4 + |1 + 2 + 3 + 4 + |1 + 2 + 3 + 4 + |

       ...Trinco dog sang a song...   [Drums]

e ||6-6-6-555-5-5-66|6-6-6-6-6-6-6-6-|----------------|----------------|
B ||6-6-6-666-6-6-66|6-6-6-6-6-6-6-6-|----------------|---------------.|
G ||----------------|----------------|----------------|----------------|
D ||----------------|----------------|----------------|----------------|
A ||----------------|----------------|----------------|---------------.|
E ||----------------|----------------|----------------|----------------|
4/4|1 + 2 + 3 + 4 + |1 + 2 + 3 + 4 + |1 + 2 + 3 + 4 + |1 + 2 + 3 + 4 + |

	 [Interlude to key-change]

e ||----------------|----------------|
B ||----------------|----------------|
G ||----------------|----------------|
D ||----------------|----------------|
A ||----------------|----------------|
E ||----------------|----------------|
4/4|1 + 2 + 3 + 4 + |1 + 2 + 3 + 4 + |

    The song changed but the rhythm remained, as trinco dog sang away.

e ||7-7-----7-7-----|6-6-----7-7-----|7-7-----7-7-----|6-6-----6-6-----|
B ||7-7-----7-7-----|7-7-----7-7-----|7-7-----7-7-----|7-7-----7-7-----|
G ||----------------|----------------|----------------|----------------|
D ||----------------|----------------|----------------|----------------|
A ||----------------|----------------|----------------|----------------|
E ||----------------|----------------|----------------|----------------|
4/4|1 + 2 + 3 + 4 + |1 + 2 + 3 + 4 + |1 + 2 + 3 + 4 + |1 + 2 + 3 + 4 + |

    The road less travelled is rock and gravel, and there's nothing for pay.  Trinco dog
away...

e ||4-4-----6-6-----|7-7-----9-9-----|7-7-----6-6-----|7-7-----7-7-----|
B ||5-5-----7-7-----|7-7-----9-9-----|7-7-----7-7-----|7-7-----7-7-----|
G ||----------------|----------------|----------------|----------------|
D ||----------------|----------------|----------------|----------------|
A ||----------------|----------------|----------------|----------------|
E ||----------------|----------------|----------------|----------------|
4/4|1 + 2 + 3 + 4 + |1 + 2 + 3 + 4 + |1 + 2 + 3 + 4 + |1 + 2 + 3 + 4 + |

                     ...Band play along...            ...So boy sing your song...

e ||--6---6---6---6-|--6---6---6---6-|--7---7---7---7-|--7---7---7---7-|
B ||--7---7---7---7-|--7---7---7---7-|--7---7---7---7-|--7---7---7---7-|
G ||----------------|----------------|----------------|----------------|
D ||----------------|----------------|----------------|----------------|
A ||----------------|----------------|----------------|----------------|
E ||----------------|----------------|----------------|----------------|
4/4|1 + 2 + 3 + 4 + |1 + 2 + 3 + 4 + |1 + 2 + 3 + 4 + |1 + 2 + 3 + 4 + |

 ...You know you couldn't go wrong... Woah...Oh (x7)...A song, song.

e ||--6---6---6---6-|--6---6---6---6-|4-4-4-666-6-6-77|7-7-7-999-9-9-44|
B ||--7---7---7---7-|--7---7---7---7-|5-5-5-777-7-7-77|7-7-7-999-9-9-55|
G ||----------------|----------------|----------------|----------------|
D ||----------------|----------------|----------------|----------------|
A ||----------------|----------------|----------------|----------------|
E ||----------------|----------------|----------------|----------------|
4/4|1 + 2 + 3 + 4 + |1 + 2 + 3 + 4 + |1 + 2 + 3 + 4 + |1 + 2 + 3 + 4 + |

    Woah...Oh (x7)...A trinco song, song...Woah...Oh (x7)...A song, song.

e ||4-4-4-666-6-6-77|7-7-7-999-9-9-44|4-4-4-666-6-6-77|7-7-7-999-9-9-44|
B ||5-5-5-777-7-7-77|7-7-7-999-9-9-55|5-5-5-777-7-7-77|7-7-7-999-9-9-55|
G ||----------------|----------------|----------------|----------------|
D ||----------------|----------------|----------------|----------------|
A ||----------------|----------------|----------------|----------------|
E ||----------------|----------------|----------------|----------------|
4/4|1 + 2 + 3 + 4 + |1 + 2 + 3 + 4 + |1 + 2 + 3 + 4 + |1 + 2 + 3 + 4 + |

    [Outro] Trinco dog sang a song.                               [END]

e ||7-7-7-666-6-6-77|7-7-7-7-7-7-7-7-|----------------|----------------||
B ||7-7-7-777-7-7-77|7-7-7-7-7-7-7-7-|----------------|----------------||
G ||----------------|----------------|----------------|----------------||
D ||----------------|----------------|----------------|----------------||
A ||----------------|----------------|----------------|----------------||
E ||----------------|----------------|----------------|----------------||
4/4|1 + 2 + 3 + 4 + |1 + 2 + 3 + 4 + |1 + 2 + 3 + 4 + |1 + 2 + 3 + 4 + ||
Добавлено: 23.05.2012
Другие материалы по этой песне:
  • Аккорды и текст

Страница создана 23.05.2012
http://primanota.ru/bedouin-soundclash/trinco-dog-chords.htm
Привет, Гость.
Предлагаем пройти революционный курс по гитаре.
Подарок от PrimaNota.Ru, забирай!