PrimaNota.ru - самый крупный в мире бесплатный архив песенных текстов, аккордов, табулатур и нот


Bedouin Soundclash - Rude Boy Dont Cry - текст песни, бас-таба, видео

Регистрация Запомнить меня
Войти через:  Facebook Google Twitter Vk Yandex Mail.ru

Bedouin Soundclash - Rude Boy Dont Cry - текст песни, бас-таба, видео

Печатать
Просмотров: 156
Intro
G----------------------------------|
D-5-------0-3-0-3-5----------------|
A----------------------------------|
E----------------------------------|

Verse

G-------------------------------------------------------------|
D-5-------0-3-0-3-5------5-3----------------------------------|
A----------------------------5-3-1-----1-1-1-3-3-5----0-3-0-3-|
E-------------------------------------------------------------|

Chorus

G-------------------------------------------------------------|
D-5-------0-3-0-3-5------5-3---------------5-3----------------|
A----------------------------5-3-1-----1-1-----5-1----0-3-0-3-|
E-------------------------------------------------------------|

G---------------------------------------------------------------|
D-5-------0-3-0-3-5------5-3---------------5-3------------5-3---|
A----------------------------5-3-1-----1-1-----5-1----1-1-----5-|
E---------------------------------------------------------------|

Bridge

G---------------------------------------------|
D--555555-------------------------------------|
A---------111111-333333-555555----------------|
E---------------------------------------------|

Outro

Intro x2
G----------------------------------|
D-5-------0-3-0-3-5----------------|
A----------------------------------|
E----------------------------------|
Добавлено: 24.05.2012
Другие материалы по этой песне:
  • Аккорды и текст

Страница создана 24.05.2012
http://primanota.ru/bedouin-soundclash/rude-boy-dont-cry-chords.htm
Привет, Гость.
Предлагаем пройти революционный курс по гитаре.
Подарок от PrimaNota.Ru, забирай!