PrimaNota.ru - самый крупный в мире бесплатный архив песенных текстов, аккордов, табулатур и нот


Bedouin Soundclash - Midnight Rockers - бас-таба, видео

Регистрация Запомнить меня
Войти через:  Facebook Google Twitter Vk Yandex Mail.ru

Bedouin Soundclash - Midnight Rockers - бас-таба, видео

Печатать
Просмотров: 166
Авторы: Bedouin Soundclash

-------------------------------------------------------------------------------
		     Midnight Rockers - Bedouin Soundclash - Street Gospels
-------------------------------------------------------------------------------

Tabbed By : Stuart Symes	
e-mail: johnny-butt@hotmail.com

Tuning: EADG

Riff I

             |triplet|           |triplet|
G|---------------------------------------------------------------------------|
D|-------------------0---2---2---2---0---------------------------------------|
A|---0---0---0---3-----------------------3-----------------------------------|
E|---------------------------------------------------------------------------|

Riff II
                     
     |triplet|           |triplet|   |triplet|
G|---------------------------------------------------------------------------|
D|---------------------------------------------------------------------------|
A|---5---5---5---5---0---3---3---3---0---0---0-------------------------------|
E|---------------------------------------------------------------------------|

Riff III

     |triplet|   .      .      .
G|---------------------------------------------------------------------------|
D|----------------------2------5---------------------------------------------|
A|---5---5---5---5-----------------------------------------------------------|
E|---------------------------------------------------------------------------|

Riff IV

G|---------------------------------------------------------------------------|
D|---/5----------------------------------------------------------------------|
A|---------------------------------------------------------------------------|
E|---------------------------------------------------------------------------|


Riff 1 x 20
Riff 2 x 3
Riff 3 x 1
Riff 1 x 16
Riff 2 x 3
Riff 3 x 1
Riff 1 x 16
Riff 2 x 3
Riff 3 x 1
Riff 1 x 28
Riff 2 x 3
Riff 3 x 1
Riff 1 x 12 (ritard on the last couple of repeats)
Riff 4 x 1


Fine

|. staccato
|/ slide into from below


Добавлено: 22.07.2012
Другие материалы по этой песне:
  • Аккорды и текст

Страница создана 19.04.2012
http://primanota.ru/bedouin-soundclash/midnight-rockers-chords.htm
Привет, Гость.
Предлагаем пройти революционный курс по гитаре.
Подарок от PrimaNota.Ru, забирай!