PrimaNota.ru - самый крупный в мире бесплатный архив песенных текстов, аккордов, табулатур и нот


Bedouin Soundclash - Jealousy And The Get Free - бас-таба, видео

Регистрация Запомнить меня
Войти через:  Facebook Google Twitter Vk Yandex Mail.ru

Bedouin Soundclash - Jealousy And The Get Free - бас-таба, видео

Печатать
Просмотров: 118
Авторы: Bedouin Soundclash

-------------------------------------------------------------------------------
			jealousy and the get free - bedouin soundclash
-------------------------------------------------------------------------------

Tabbed By: valerie l
e-mail: iloled@yahoo.com
Tuning: standard

this is basically the whole song.  It's simple and sweet. :)


"ohh jealousyyyyyy..."
G|--------------|     |-------------|
D|-2------------|     |-2-----------|
A|---3----0-----|     |---3---0--0--|
E|-----4--------| x2  |-----4-------|

G|--------------|     |-------------|
D|-2------------|     |-2-----------|
A|---3----0-----|     |---3---0--0--|
E|-----4--------| x4  |-----4-------|

Добавлено: 26.02.2012
Другие материалы по этой песне:
  • Аккорды и текст

Страница создана 26.02.2012
http://primanota.ru/bedouin-soundclash/jealousy-and-the-get-free-chords.htm
Привет, Гость.
Предлагаем пройти революционный курс по гитаре.
Подарок от PrimaNota.Ru, забирай!