PrimaNota.ru - самый крупный в мире бесплатный архив песенных текстов, аккордов, табулатур и нот


Bedouin Soundclash - Immigrant Workforce - бас-таба, видео

Регистрация Запомнить меня
Войти через:  Facebook Google Twitter Vk Yandex Mail.ru

Bedouin Soundclash - Immigrant Workforce - бас-таба, видео

Печатать
Просмотров: 130
--------------------------------------------------------------------------
			     Immigrant Workforce - Bedouin Soundclash      
---------------------------------------------------------------------------

Tabbed By : Edan Scime
e-mail: Dumbase@hotmail.com

Tuning: Standard


This song is really catchy and pretty easy to play. so here it is, its almost 100% correct.

Intro/Verse
G|----------------------------------------------------------------|
D|---------------3--2--0------2-----------------------------------|
A|--0--2--3---------------------3--0-------2--0-------------------|  X6
E|----------------------------------------------4-----------------|

Chorus
G|----------------------------------------------------------------|
D|--------------------------------------7--7----------------------|
A|--0--0----8-7-5--5----x-6-7---7---7-----------------------------|
E|----------------------------------------------------------------|

G|-------------------------------9---9---9---9--------------------|
D|----------------------------------------------------------------|
A|--0--0-----8-7-5---5-----5-6-7---7---7---7----7--5--------------|
E|----------------------------------------------------8--7--------|

Last Bit of Final Chorus
G|----------------------------------------------------------------|
D|------------------------------------7--7--7---------------------|
A|--0--0--0----5--5--5----7--7--7---------------------------------|
E|----------------------------------------------------------------|

G|---------------------------------9---9---9---9------------------|
D|----------------------------------------------------------------|
A|--0--0--0---x-7-5--5--5----5-6-7---7---7---7----77--55----------|
E|--------------------------------------------------------88--77--|

Outro
G|----------------------------------------------------------------|
D|--------------3--2--0-----2----------3--2--0-----2--------------|
A|--0--2--3-------------------3--0-------------------3--0---------|      
E|----------------------------------------------------------------|

| /  slide up
| \  slide down
| h  hammer-on
| p  pull-off
| ~  vibrato
| +  harmonic
| x  Mute note
============================================================================
Добавлено: 24.06.2012
Другие материалы по этой песне:
  • Аккорды и текст

Страница создана 24.06.2012
http://primanota.ru/bedouin-soundclash/immigrant-workforce-chords.htm
Привет, Гость.
Предлагаем пройти революционный курс по гитаре.
Подарок от PrimaNota.Ru, забирай!