PrimaNota.ru - самый крупный в мире бесплатный архив песенных текстов, аккордов, табулатур и нот


Bedlight For Blue Eyes - Michael - аккорды и текст, таба, видео

Регистрация Запомнить меня
Войти через:  Facebook Google Twitter Vk Yandex Mail.ru

Bedlight For Blue Eyes - Michael - аккорды и текст, таба, видео

Печатать
Просмотров: 165
Michael
Bedlight For Blue Eyes


This is my first time ever posting tabs and
I'm a beginner on guitar [with alittle musical
background] and I've been trying to find tabs
for Michael for ages but
I don't really find the right one [pretty
disappointed] so I tried to figure the chords out.

  All I can tell you is that I don't think it's
accurate [duh im a beginner] and just hopefully
from my effort, someone can polish it so others can learn it.

Enjoy  =]  THIS IS A ROCKIN SONG   xx.

Whatever the following 4 chords are underneath,
because I don't know their names, I'm just going to label them:
        [funnyG][fG]
e|----|-----|--X---|---
B|----|-----|--X---|---
G|----|-----|------|---
D|----|-----|------|---
A|----|--X--|------|---
E|----|-----|--X---|---
 1st  2nd    3rd   4th
fret  fret   fret  fret

          [funny Em]
e|---|-----|--X--|---
B|---|-----|--X--|---
G|---|-----|-----|---
D|---|--X--|-----|---
A|---|--X--|-----|---
E|---|-----|-----|---
 1st  2nd   3rd   4th
fret  fret  fret  fret


hope you get the idea that by funny
I mean how you haveto hold down the two
thin strings on the 3rd fret throughout
the verses.
so hopefully you can figure it out by
[funny C] and [funny D].



The intro is something ROUGHLY like this:

          [ G ]         [ Em ]

|---3-------------|-----------------|
|------------3----|--3----------3---|
|-----------------|---------0-------|
|---------0-------|-----2-----------|
|------2----------|--2--------------|
|---3-------------|-----------------|

       [ C ]             [ D ]
|-----------------|-----------
|--3---------3----|----------------
|---------0-------|---[something the same]
|------2----------|---------------
|--3--------------|-------------
|-----------------|--------

VI:[in background the intro keeps playing]
Got the news the other day,
a child's innocence taken away.
You were never scared, I'll always care
Grandson to son and a memory we'll never lose in time.


Pre-Chorus:
 [Am,C]      [G]      [G]
Am I making you proud of me
      [Am,C]   [D]      [D]
Добавлено: 21.08.2013
Другие материалы по этой песне:

Страница создана 10.04.2012
http://primanota.ru/bedlight-for-blue-eyes/michael-chords.htm
Привет, Гость.
Предлагаем пройти революционный курс по гитаре.
Подарок от PrimaNota.Ru, забирай!