PrimaNota.ru - самый крупный в мире бесплатный архив песенных текстов, аккордов, табулатур и нот


Bedlam - Harvest Moon - таба, видео

Регистрация Запомнить меня
Войти через:  Facebook Google Twitter Vk Yandex Mail.ru

Bedlam - Harvest Moon - таба, видео

Печатать
Просмотров: 143
Title:	Harvest Moon
By:	Bedlam

Transcribed by Paul Brightley, from the album Reservoir Dogs

A 12 string job, let everything ring, must be smooth and fluid throughout. Lots of scope
adding little things here and there. Strong fingers will be developed. This
sounds right to me, suggestions welcomed. This was done on Guitar Pro, so the pb4 file 
available. With the tiniest clean up this file can be imported into all the good tabbing programs.
new joy for me ...

Tuning: DADF#AD


Guitar 12 string

Quick swig o' JD and ...

			     B		       B     D

D ||----------------------|--2-----------------2--|--0--------------------|
A ||----------------------|--0-----------------0--|--0--------------------|
F#||----------------------|--1-----------------1--|--0--------------------|
D ||----------------------|--2-----------------2--|--0--------------------|
A ||-------------------0--|--0-----------------0--|--------------------0--|
D ||------------0--2-4----|-------------0--2-4----|--0----------0--2-4----|


                                     H
--2-----------------2--|--0----------12------|
--0-----------------0--|--0----------12------|
--1-----------------1--|--0----------12------|
--2-----------------2--|--0----------12------|
--0-----------------0--|--0------------------|
-------------0--2-4----|--0------------------|

--2-4-2-0-----2--0---------2--0--|--2-4-2-0-----2--0---------2--0--|
----------2-0-0--0---------0--0--|----------2-0-0--0---------0--0--|
--------------1--0---------1--0--|--------------1--0---------1--0--|
--------------2--0---------2--0--|--------------2--0---------2--0--|
------------------------0--------|------------------------0--------|
--------------------2-4----------|--------------------2-4----------|

--2-4-2-0-----2--0---------2--0--|--2-4-2-0-----2--0---------2--0--|
----------2-0-0--0---------0--0--|----------2-0-0--0---------0--0--|
--------------1--0---------1--0--|--------------1--0---------1--0--|
--------------2--0---------2--0--|--------------2--0---------2--0--|
------------------------0--------|------------------------0--------|
--------------------2-4----------|--------------------2-4----------|


repeat starts here
    A
|---0----------0------|--0----------0------|
|---2----------2------|--2----------2------|
|*--1----------1------|--1----------1------|
|*--0----------0------|--0----------0------|
|---2----------2------|--2----------2------|
|---0----------0------|--0----------0------|

  How long can we live this way, ... How long 'till the rain starts coming down?
  Take me down to the river  ... Take me to the preacher-man


---------2--0--2-4-2-0-----2--0--|---------2--0--2-4-2-0-----2--0--|
---------0--0----------2-0-0--0--|---------0--0----------2-0-0--0--|
---------1--0--------------1--0--|---------1--0--------------1--0--|
------0--2--0--------------2--0--|------0--2--0--------------2--0--|
------0--------------------------|------0--------------------------|
--2-4----------------------------|--2-4----------------------------|

--0----------0------|--0----------0------|
--2----------2------|--2----------2------|
--1----------1------|--1----------1------|
--0----------0------|--0----------0------|
--2----------2------|--2----------2------|
--0----------0------|--0----------0------|

Everybodys wondering ... When will it be over?
I can't wait any longer ... I messed up all I can


---------2--0--2-4-2-0-----2--0--|---------2--0--2-4-2-0-----2--0--|
---------0--0----------2-0-0--0--|---------0--0----------2-0-0--0--|
---------1--0--------------1--0--|---------1--0--------------1--0--|
------0--2--0--------------2--0--|------0--2--0--------------2--0--|
------0--------------------------|------0--------------------------|
--2-4----------------------------|--2-4----------------------------|
							I hear the
							I hear the
                                     H
--0--------0--0--0----|--0--------0--0--0----|--2--------2--2--2----|
--2--------2--2--2----|--0--------0--0--0----|--0--------0--0--0----|
--1--------1--1--1----|--0--------0--0--0----|--1--------1--1--1----|
--0--------0--0--0----|--0--------0--0--0----|--2--------2--2--2----|
--2--------2--2--2----|--0--------0--0--0----|-----------0----------|
--0--------0--0--0----|--0--------0--0--0----|----------------------|

night train   ...      	every evening ...	    Maybe change is coming
night train singing 	in the distance ...      Maybe the angels are coming


--0--------0--------|---------2--0--2-4-2-0-----2--0--|
--2--------2--------|---------0--0----------2-0-0--0--|
--1--------1--------|---------1--0--------------1--0--|
--0--------0--------|------0--2--0--------------2--0--|
--2--------2--------|--0---0--------------------------|
--0--------0--------|--2-4----------------------------|

soon ...		With the harvest moon ...
soon ...		With the harvest moon ...


	Back to repeat start once
---------2--0--2-4-2-0-----2--0---||--0--------0--0--0----|
---------0--0----------2-0-0--0---||--0--------0--0--0----|
---------1--0--------------1--0--*||--0--------0--0--0----|
------0--2--0--------------2--0--*||--0--------0--0--0----|
--0---0---------------------------||--0--------0--0--0----|
--2-4-----------------------------||--0--------0--0--0----|

--0--------0--0--0----|--0--------0--0--0----|--0--------0--0--0----|
--2--------2--2--2----|--0--------0--0--0----|--2--------2--2--2----|
--1--------1--1--1----|--0--------0--0--0----|--1--------1--1--1----|
--0--------0--0--0----|--0--------0--0--0----|--0--------0--0--0----|
--2--------2--2--2----|--0--------0--0--0----|--2--------2--2--2----|
--0--------0--0--0----|--0--------0--0--0----|--0--------0--0--0----|


  >	   >	       >        > ...ringy again
--0--------2--------|--4--------0--------|--0--------0--0--0----|
--2--------0--------|--0--------2--------|--2--------2--2--2----|
--1--------1--------|--3--------1--------|--1--------1--1--1----|
--0--------2--------|--4--------0--------|--0--------0--0--0----|
--2--------0--------|-----------2--------|--2--------2--2--2----|
--0--------0--------|-----------0--------|--0--------0--0--0----|

If the rivers rising ... Look to the dark horizon

--0--------0--0--0----|--0--------0--0--0----|--0--------0--0--0----|
--2--------0--0--0----|--0--------2--2--2----|--2--------0--0--0----|
--1--------0--0--0----|--0--------1--1--1----|--1--------0--0--0----|
--0--------0--0--0----|--0--------0--0--0----|--0--------0--0--0----|
--2--------0--0--0----|--0--------2--2--2----|--2--------0--0--0----|
--0--------0--0--0----|--0--------0--0--0----|--0--------0--0--0----|

For the harvest moon ... (yeah ...)

--0--------0--0--0----|--0--------0--0--0----|--0--------0--0--0----|
--0--------2--2--2----|--2--------0--0--0----|--0--------2--2--2----|
--0--------1--1--1----|--1--------0--0--0----|--0--------1--1--1----|
--0--------0--0--0----|--0--------0--0--0----|--0--------0--0--0----|
--0--------2--2--2----|--2--------0--0--0----|--0--------2--2--2----|
--0--------0--0--0----|--0--------0--0--0----|--0--------0--0--0----|

				  Wait a minute, just a little bit longer ...

--0--------0--0--0----|--0--------0--0--0----|--0--------0--0--0----|
--2--------0--0--0----|--0--------2--2--2----|--2--------0--0--0----|
--1--------0--0--0----|--0--------1--1--1----|--1--------0--0--0----|
--0--------0--0--0----|--0--------0--0--0----|--0--------0--0--0----|
--2--------0--0--0----|--0--------2--2--2----|--2--------0--0--0----|
--0--------0--0--0----|--0--------0--0--0----|--0--------0--0--0----|

It's all up to me and you ...
                       repeat forever and fade with goose bumps ...
--0--------0--0--0----|
--0--------2--2--2----|
--0--------1--1--1----|
--0--------0--0--0----|
--0--------2--2--2----|
--0--------0--0--0----|

This file is all my own

email: paul at paulbrightley.com, music only, spammers: go away
Добавлено: 02.05.2012
Другие материалы по этой песне:
  • Аккорды и текст

Страница создана 02.05.2012
http://primanota.ru/bedlam/harvest-moon-chords.htm
Привет, Гость.
Предлагаем пройти революционный курс по гитаре.
Подарок от PrimaNota.Ru, забирай!