PrimaNota.ru - самый крупный в мире бесплатный архив песенных текстов, аккордов, табулатур и нот


Becoming The Archetype - The Epigone - текст песни, таба, видео

Регистрация Запомнить меня
Войти через:  Facebook Google Twitter Vk Yandex Mail.ru

Becoming The Archetype - The Epigone - текст песни, таба, видео

Печатать
Просмотров: 132
Artist-Becoming The Archetype
Song- The Epigone
Tuning- Drop C

Awesome Song, Awesome Band, Enjoy!

Intro Backing Chords
d|-------------------------------------------------------------|
A|-------------------------------------------------------------|
F|-------------------------------------------------------------|
C|-0---------------3------------2---------------3-------3------|
G|-0---------------1------------0---------------3-------4------|
C|-0--------------------------------------------3--------------|
                                                               |
                                                               |
Intro Lead                                                     |
d|-------------------------------------------------------------|
A|-------------------------------------------------------------|
F|-------------------------------------------------------------|
C|-------------------------------------------------------------|
G|-5--8-7--10-8-7--5--8-7--5-1--5--8-7--10-8-7--5--8-7--8-10---|
C|-------------------------------------------------------------|

Lower Harmony when drums first come in to beat
d|-------------------------------------------------------------|
A|-------------------------------------------------------------|
F|-------------------------------------------------------------|
C|-------------------------------------------------------------|
G|-5--5-3--7-5-3--5--5-3--0----5--5-3--7-5-3--5--8-7--12-10----|
C|--------------------------3----------------------------------|

1st harmony over faster intro beat
d|-------------------------------------------------------------|
A|-------------------------------------------------------------|
F|-------------------------------------------------------------|
C|----7-5--8-7-5-----7-5--3------7-5--8-7-5----7-5--7-8--------|
G|-5--------------5---------5--5-------------5-----------------|
C|-------------------------------------------------------------|

2nd (high) Harmony over intro
d|-------------------------------------------------------------|
A|-------------------------------------------------------------|
F|---10-9--12-10-9----10-9--7-3---10-9--12-10-9---10-9-10-12---|
C|-------------------------------------------------------------|
G|-5----------------5-----------5---------------5--------------|
C|-------------------------------------------------------------|

Last part of intro
d|-------------------------------------------------------------|
A|-------------------------------------------------------------|
F|-------------------------------------------------------------|
C|-------------------------------------------------------------|Guitar 1
G|-5--8-7--10-8-7--8--7--3--4----------------------------------|
C|-----------------8--7--3-------------------------------------|
                                                               |
G|-----------------8--7----------------------------------------|
C|-----------------8--7--10-11---------------------------------|Guitar 2

Main Riff
d|-------------------------------------------------------------|
A|-------------------------------------------------------------|
F|-------------------------------------------------10-9--------|
C|------------------7----8-7-------------------8-7-----12-10---|
G|-------------7-8----10----10---------------------------------|
C|-000-000-000-----------------000-000-000-0-0-----------------|


'Im just repeating myself' riff
d|-------------------------------------------------------------|
A|-------------------------------------------------------------|
F|-7-9-10p9-5-9-7-10-9-7--7-9-10p9-3-7-5-6---------------------|
C|--0-0----0-0-0-----------0-0----0-0-0-0----------------------|
G|-------------------------------------------------------------|
C|-------------------------------------------------------------|

'Your name is glory' riff

d|--------|--------------------------------------------------|
A|--------|--------------------------------------------------|
F|--------|--------------------------------------------------|
C|3-7-5-9-|--------------------------------------------------|
G|1-5-3-7-|5-5-5-7-7-7-8-8-8-5-5-5-1-1-1-5-5-5-3-3-3-7-7-7---|
C|--------|--------------------------------------------------|

Mid section riff
d|-------------------------------------------------------------|
A|-------------------------------------------------------------|
F|-------------------------------------------------------------|
C|-------------------------------------------------------------|
G|-0000-0000-0-0-0-0000-000------------------------------------|
C|-0000-0000-0-0-0-0000-000------------------------------------|

Mid riff with fills
d|-------------------------------------------------------------|
A|-------------------------------------------------------------|
F|------------------------------------------------------3/66---|
C|-------------------------------------------------------------|
G|-0000-0000-0-0-0--7/8\7-3--0000-0000-0-0-0------------1/44---|
C|-0000-0000-0-0-0--7/8\7-3--0000-0000-0-0-0-0000-0-0-0--------|

Tabbed by Nick Gee vist http://www.prayforfire.co.uk
                        http://www.purevolume.com/prayforfire
Добавлено: 25.05.2012
Другие материалы по этой песне:
  • Аккорды и текст

Страница создана 20.05.2012
http://primanota.ru/becoming-the-archetype/the-epigone-chords.htm
Привет, Гость.
Предлагаем пройти революционный курс по гитаре.
Подарок от PrimaNota.Ru, забирай!