PrimaNota.ru - самый крупный в мире бесплатный архив песенных текстов, аккордов, табулатур и нот


Becoming The Archetype - St Annes Lullaby - таба, видео

Регистрация Запомнить меня
Войти через:  Facebook Google Twitter Vk Yandex Mail.ru

Becoming The Archetype - St Annes Lullaby - таба, видео

Печатать
Просмотров: 131
Уроки эстрадного вокала в Санкт-Петербурге
D standard Tuning

E|-------------------------------------------------------------------------|
B|----5-----------6--5--8--6----5-----------3-----3---------------------6--|
G|---5---5-----5---------------5---5-------2---------2--4--5------4--5-----|
D|--7-------7-----------------5-------5---4----------------3---7-----------|
A|----------------------------3----------------------------3---------------|
E|--5-------------------------------------2-----2--------------------------|

0:11
-|----------------------5--------------------------------------------------|
-|----8-----------8--5-----8----5---6--5----3---5-3---------------------6--|
-|---5---5-----5---------------5---5--5----2---------2--4--5------4--5-----|
-|--7-------7-----------------5-----------4----------------3---7-----------|
-|----------------------------3----------------------------3---------------|
-|--5-------------------------------------2--------------------------------|

0:23
-|------------------------------0-------------|
-|----5-----------6--5--8--6---1---1----------|
-|---5---5-----5--------------0-------0---1---|
-|--7-------7---------------------------------|
-|----------------------------3---------------|
-|--5-----------------------------------------|

-|-----------------1-----------3-----------3----3---|
-|-----1--1---1-------1---1---3---3---3---3---------|
-|----2-----2-----2-----2----4------4----4----------|
-|---3-----------3----------------------------------|
-|--------------------------------------------------|
-|---1-----------1-----------3-----------3----------|


-|---5------5----5--7--8--7--5-----7--------7--5-------------|
-|---6---8----------------------8--8--8--------6--6----------|
-|---7-----------------------------9-----9-----7-----7--9\---|
-|-----------------------------------------------------------|
-|-----------------------------------------------------------|
-|-----------------------------------------------------------|

Harmonics
-|-----------------12-------------------|
-|---------1------12----------1---------|
-|---2--2-----2--12-----2--2-----2--1---| [x2]
-|--------------------------------------|
-|--------------------------------------|
-|--------------------------------------|

-|-------------------------------------------------------------|
-|-------------------------------------------------------------|
-|---2-------------------------2-------------------------------|
-|-------2-------------------------2-----------------------2---|
-|---------3-----2---3-2-------------3-----2---3-2---3--5------|
-|-------------5---------5--3------------5---------5-----------|

-|-------------------------------------------------------------|
-|-------------------------------------------------------------|
-|---2-------------------------2-------------------------------|
-|-------2-------------------------2---------------------------|
-|---------3-----2---3-2-------------3-----2---3-2---3--5--6---|
-|-------------5---------5--3------------5---------5-----------|
End Harmonics

1:21
-|--------------------------------------------------------------------|
-|----------8---------------------------10---------8--10p8h10/12------|
-|---9---------9------5-7-9--12--11--------11-------------------------|
-|----------------9---7/9/10/12---------------12--------------13------|
-|---7---7-----------------------12--12-----------10------------------|
-|--------------------------------------------------------------------|

-|--------------------------------------------------------------------|
-|----------8---------------------------10---------8--10p8h10----12---|
-|---9---------9------5-7-9--12--11--------11-------------------------|
-|----------------9---7/9/10/12---------------12--------------13------|
-|---7---7-----------------------12--12-----------10------------------|
-|--------------------------------------------------------------------|

1:35
-|--------------------------------|
-|----------7-7h8p7---------------|
-|---9---9---------9--5-7-9--12---|
-|-----9------------9--7-9-10-12--|
-|---7----------------------------|
-|--------------------------------|

-|------------------------------------------------|
-|-----------------------------8---10h8p10-12-----|
-|---11----11-12-12h14p12-11----------------------|
-|-----------------------------------------13-----|
-|---9---12-----------------12-10-10--------------|
-|------------------------------------------------|

-|--------------------------------|
-|----------7-7h8p7---------------|
-|---9---9---------9--5-7-9--12---|
-|-----9------------9--7-9-10-12--|
-|---7----------------------------|
-|--------------------------------|

-|-------------------------------------------------|
-|-----------------------------8---10h8p10----12---|
-|---11----11-12-12h14p12-11-----------------------|
-|-----------------------------------------13------|
-|---9---12-----------------12-10-10---------------|
-|-------------------------------------------------|
Добавлено: 05.03.2012
Другие материалы по этой песне:

Страница создана 05.03.2012
http://primanota.ru/becoming-the-archetype/st-annes-lullaby-chords.htm
Привет, Гость.
Предлагаем пройти революционный курс по гитаре.
Подарок от PrimaNota.Ru, забирай!