PrimaNota.ru - самый крупный в мире бесплатный архив песенных текстов, аккордов, табулатур и нот


Becoming The Archetype - Self Existent - бас-таба, видео

Регистрация Запомнить меня
Войти через:  Facebook Google Twitter Vk Yandex Mail.ru

Becoming The Archetype - Self Existent - бас-таба, видео

Печатать
Просмотров: 164
Уроки эстрадного вокала в Санкт-Петербурге
-------------------------------------------------------------------------------
			     Self Existent - Becoming the Archetype
-------------------------------------------------------------------------------

Tabbed By : Necrotic
e-mail: joelschwallier@gmail.com

Tuning: Drop C
Intro Piano

0:10 Verse 7/8 time
F|-----------------|
C|-----------------|
G|-----------------|
C|000------000-000-|x3
  1  . . . 5   6  . <---Beats

6/8
F|--------------|
C|--------------|
G|--------------|
C|000------8-10-|
     . . .   
0:19
F|----------------------------|----------------------------|
C|----------------------------|----------------------------|
G|----------------------------|----------------------------|
C|000-0-000-000-0-000-0-0-0-0-|222-2-222-222-2-222-2-222222|

F|----------------------------|----------------------------|
C|----------------------------|----------------------------|
G|----------------------------|----------------------------|
C|333-3-333-333-3-333-3-333333|222-2-222-222-2-222-2-222222|

0:28
F|-----------------|
C|-----------------|
G|-----------------|
C|000------000-000-|x3
  1  . . . 5   6  . <---Beats

6/8
F|--------------|
C|--------------|
G|--------------|
C|000------8-10-|
     . . .   
0:37
F|----------------------------|----------------------------|
C|----------------------------|----------------------------|
G|----------------------------|----------------------------|
C|000-0-000-000-0-000-0-0-0-0-|222-2-222-222-2-222-2-222222|

F|----------------------------|----------------------------|----------------------|
C|----------------------------|----------------------------|----------------------|
G|----------------------------|----------------------------|----------------------|
C|333-3-333-333-3-333-3-333333|444-4-444-444-4-444-4-444444|444-4-444-444-4-444444-444|

0:49 Chorus
F|--------------------|--------------------|
C|--------------------|--------------------|
G|--------------------|--------------------|
C|5---03-5---03-5---0-|5---03-5---03-5---1-|

F|--------------------|--------------------|
C|--------------------|--------------------|
G|--------------------|--------------------|
C|5---03-5---03-5---0-|1---------0----3----|

F|--------------------|--------------------|
C|--------------------|--------------------|
G|--------------------|--------------------|
C|5---03-5---03-5---0-|5---03-5---03-5---1-|
                                           
F|--------------------|--------------------|
C|--------------------|--------------------|
G|--------------------|--------------------|
C|5---03-5---03-5---0-|1---------0----3----|

1:08  Bridge
5/4                        4/4
F|-------------------------|--------------------|
C|5------------------------|5-------------------|
G|--8-6-5---6-5-----5-/-11-|--8-6-5---6-5-----2-|
C|-------------------------|--------------------|x2

1:21 (bass/piano part)
Slap 
5/4                   4/4
F|--------------------|--------------------|
C|--------------------|--------------------|
G|--------------------|--------------------|
C|0-0-3-5---0-3-0-7-8-|0-0-3-5---0-3-0-5-3-|x7

1:46 Triplets (slowly)
F|-------------------------------------------------|
C|-------------------------------------------------|
G|------------333333333111000---000111333333-------|
C|000000000333---------------555------------333333-|

F|-------------------------------------------------|
C|-------------------------------------------------|
G|---------------------111000---000111333333555555-|
C|555555555333000000000------555-------------------|

1:59 Heavy riff
F|--------------------------------|-----------------------------------|
C|--------------------------------|-----------------------------------|
G|--------------------------------|-----------------------------------|
C|0-----6-8-----3-5-------6---5---|0------6------3-------444333000000-|

F|----------------|----------------|-----------------|-----------------|
C|----------------|----------------|-----------------|-----------------|
G|----------------|----------------|-----------------|-----------------|
C|0000000000006666|8888888888883333|55555555555556666|8888888899999999-|

2:17 Breakdown 7/8 time (verse)
F|-----------------|
C|-----------------|
G|-----------------|
C|000------000-000-|x3
  1  . . . 5   6  . <---Beats

6/8
F|--------------|
C|--------------|
G|--------------|
C|000------8-10-|
     . . .   

2:26 (you can play this rhythm that i made Or-
play it along with the drums on Sixteenths)
F|----------------------------|----------------------------|
C|----------------------------|----------------------------|
G|----------------------------|----------------------------|
C|000-0-000-000-0-000-0-0-0-0-|222-2-222-222-2-222-2-222222|

F|----------------------------|----------------------------|----------------------|
C|----------------------------|----------------------------|----------------------|
G|----------------------------|----------------------------|----------------------|
C|333-3-333-333-3-333-3-333333|444-4-444-444-4-444-4-444444|444-4-444-444-4-444444-444|

2:38 Verse Riff
F|--------------------|--------------------|
C|--------------------|--------------------|
G|--------------------|--------------------|
C|5---03-5---03-5---0-|5---03-5---03-5---1-|

F|--------------------|--------------------|
C|--------------------|--------------------|
G|--------------------|--------------------|
C|5---03-5---03-5---0-|1---------0----3----|

F|--------------------|--------------------|
C|--------------------|--------------------|
G|--------------------|--------------------|
C|5---03-5---03-5---0-|5---03-5---03-5---1-|
                                           
F|--------------------|--------------------|-------|
C|--------------------|--------------------|-------|
G|--------------------|--------------------|-------|
C|5---03-5---03-5---0-|1---------0----3----|5------|

Rest from 3:00-3:16

Piano Outro 3:16 Decrescendo after 2 times
F|------------------------|-------------------------|
C|------------------------|-------------------------|
G|------------------------|-------------------------|
C|55--55----555555----5555|11--11----111111----1111-|x6


. = rest when counting beats as shown in the breakdown at 2:17

| /  slide up
| \  slide down
| h  hammer-on
| p  pull-off
| ~  vibrato
| +  harmonic
| x  Mute note
===============================================================================
Добавлено: 03.07.2012
Другие материалы по этой песне:
  • Аккорды и текст

Страница создана 03.07.2012
http://primanota.ru/becoming-the-archetype/self-existent-chords.htm
Привет, Гость.
Предлагаем пройти революционный курс по гитаре.
Подарок от PrimaNota.Ru, забирай!