PrimaNota.ru - самый крупный в мире бесплатный архив песенных текстов, аккордов, табулатур и нот


Becoming The Archetype - The Monolith - текст песни, таба, видео

Регистрация Запомнить меня
Войти через:  Facebook Google Twitter Vk Yandex Mail.ru

Becoming The Archetype - The Monolith - текст песни, таба, видео

Печатать
Просмотров: 248
Band: Becoming the Archetype
Album: The Physics Of Fire 
Song: The Monolith
Tabbed by: Peter Ensing
Contact: crazypumba@live.nl


 Heavy *Dist.* and tuning Drop C :D
D|------------------------------------------------------------------|
A|------------------------------------------------------------------|
F|------------------------------------------------------------------|
C|------------------------------------------------------------------|
G|--3/10-10-10-9-9-9-8-8-8-6-6-6-2/3-3-3-3-3-3-3-3-6-3-3-3-3-3-3-3--|
C|------------------------------------------------------------------|
			  ________________________________________
			  |		1
D|-----------------------------|------------------------------------|-|
A|-----------------------------|----------------------------------*-|-|
F|-----------------------------|------------------------------------|-|
C|-----------------------------|-8-5-5-5-5-5-5-5-9-5-5-5-5-5-5-5----|-|
G|--10-10-10-9-9-9-8-8-8-6-6-6-|----------------------------------*-|-|
C|-----------------------------|------------------------------------|-|
____________________________________
		2	       |	
D|----------------------------------|---------------------------------|
A|----------------------------------|---------------------------------|
F|----------------------------------|---------------------------------|
C|--8-8-8-8-8-8-5-8-9-9-9-9-9-9-9-9-|-5-5-X-X-4-4-X-X-----------------|
G|----------------------------------|-5-5-X-X-4-4-X-X-6-3-3-3-3-3-----|
C|----------------------------------|-5-5-X-X-4-4-X-X-----------------|

D|-----------------------------------------------------------------------|
A|-----------------------------------------------------------------------|
F|-----------------------------------------------------------------------|
C|-------------5-5-X-X-4-4-X-X-8-5-5-5-5-5-9-5-5-5-5-5-5-5-X-X-4-4-X-X---| 
G|-2-3-3-3-3-3-5-5-X-X-4-4-X-X-------------------------5-5-X-X-4-4-X-X---|
C|-------------5-5-X-X-4-4-X-X-------------------------5-5-X-X-4-4-X-X---|



D|--------------------------------------------------------------|
A|--------------------------------------------------------------|
F|----------------------------------------5-5-X-X-5-5/8-8-8-----|
C|--------------------------5-5-X-X-5-5-8-5-5-X-X-5-5/8-8-8-----|     
G|--6-3-3-3-3-3-2-3-3-3-3-3-5-5-X-X-5-5-8-3-3-X-X-3-3/6-6-6-----|
C|--------------------------5-5-X-X-5-5-8-----------------------|

D|-------------------------------------------|
A|-------------------------------------------|
F|------------------5-5-5-5-.-5-5/8-8-8-8-8--|
C|---5-5-5-5-.-5-8--5-5-5-5-.-5-5/8-8-8-8-8--|     
G|---5-5-5-5-.-5-8--3-3-3-3-.-3-3/6-6-6-6-6--|
C|---5-5-5-5-.-5-8---------------------------|

D|----------------------------------------------------|
A|----------------------------------------------------|
F|-------------------------5-5-5-5-.-5-5/8-8-8-8-8----|
C|---5-5-5-5-.-5-5-5-5-5-5-5-5-5-5-.-5-5/8-8-8-8-8----|     
G|---5-5-5-5-.-5-5-5-5-5-5-3-3-3-3-.-3-3/6-6-6-6-6----|
C|---5-5-5-5-.-5-5-5-5-5-5----------------------------|

D|-------------------------------------------|
A|-------------------------------------------|
F|------------------5-5-5-5-.-5-5/8-8-8-8-8--|
C|---5-5-5-5-.-5-8--5-5-5-5-.-5-5/8-8-8-8-8--|     
G|---5-5-5-5-.-5-8--3-3-3-3-.-3-3/6-6-6-6-6--|
C|---5-5-5-5-.-5-8---------------------------|

D|----------------------------------------------------|
A|----------------------------------------------------|
F|-------------------------5-5-5-5-.-5-5/8-8-8-8-8----|
C|---5-5-5-5-.-5-5-5-5-5-5-5-5-5-5-.-5-5/8-8-8-8-8----|     
G|---5-5-5-5-.-5-5-5-5-5-5-3-3-3-3-.-3-3/6-6-6-6-6----|
C|---5-5-5-5-.-5-5-5-5-5-5----------------------------|

D|-------------------------------------------|
A|-------------------------------------------|
F|------------------5-5-5-5-.-5-5/8-8-8-8-8--|
C|---5-5-5-5-.-5-8--5-5-5-5-.-5-5/8-8-8-8-8--|     
G|---5-5-5-5-.-5-8--3-3-3-3-.-3-3/6-6-6-6-6--|
C|---5-5-5-5-.-5-8---------------------------|
D|----------------------------------------------------|
A|----------------------------------------------------|
F|-------------------------5-5-5-5-.-5-5/8-8-8-8-8----|
C|---5-5-5-5-.-5-5-5-5-5-5-5-5-5-5-.-5-5/8-8-8-8-8----|     
G|---5-5-5-5-.-5-5-5-5-5-5-3-3-3-3-.-3-3/6-6-6-6-6----|
C|---5-5-5-5-.-5-5-5-5-5-5----------------------------|


D|-------------------------------------------|
A|-------------------------------------------|
F|------------------5-5-5-5-.-5-5/8-8-8-8-8--|
C|---5-5-5-5-.-5-8--5-5-5-5-.-5-5/8-8-8-8-8--|     
G|---5-5-5-5-.-5-8--3-3-3-3-.-3-3/6-6-6-6-6--|
C|---5-5-5-5-.-5-8---------------------------|

D|---------------------------|
A|---------------------------|
F|-------------------------5-|
C|---5-5-5-5-.-5-5-5-5-5-5-5-|     
G|---5-5-5-5-.-5-5-5-5-5-5-3-|
C|---5-5-5-5-.-5-5-5-5-5-5---|

Repeat this until the solo is finished and than hit the last tone (10)! 

D|-|----------------------------------------------------------------|
A|-|-*--------------------------------------------------------------|
F|-|----------------------------------------------------------------|
C|-|----------------------------------------------------------------|     
G|-|-*-6-X-X-8-X-X-9p8-6-5-5-5-5-5-5-2-2-2-2-2-2-6-X-X-8-X-X-9p8-6--|
C|-|----------------------------------------------------------------|

D|-----------------------------------------------------------|
A|-----------------------------------------------------------|
F|-----------------------------------------------------------|
C|--5-5-5-5-5-5-9-9-9-9-9-9----------------------------------|     
G|--------------------------6-X-X-8-X-X-9p8-6-5-5-5-5-5-5----|
C|-----------------------------------------------------------|

D|----------------------------------------|
A|----------------------------------------|
F|----------------------------------------|
C|----------------------------------------|     
G|-----2-2-2-2-2-2-6-X-X-8-X-X-9p8-6-5----|
C|----------------------------------------|


D|------------------------------------------------------|-|	|------|
A|----------------------------------------------------*-|-|	|------|
F|------------------------------------------------------|-|	|------|
C|--5-5-5-5-5-5-5-5-5-5-5-5-9-9-9-9-9-9-9-9-9-9-9-9-----|-|    	|--10--|
G|----------------------------------------------------*-|-|	|------|
C|------------------------------------------------------|-|	|------|


D|-----------------------------------------------------|
A|-----------------------------------------------------|
F|-----------------------------------------------------|
C|--10--5-6-6-3-3-6-1-0--10--5-6-6-3-3-6-1-3-----------|     
G|--10--5-6-6-3-3-6-1-0--10--5-6-6-3-3-6-1-3-----------|
C|--10--5-6-6-3-3-6-1-0--10--5-6-6-3-3-6-1-3-----------|

D|-----------------------------------------------------|
A|-----------------------------------------------------|
F|-----------------------------------------------------|
C|--10-.-10-5-6-X-X-X-6-X-X-6-X-X-3-3-3-5-1-X-X-1-X-0--|     
G|--10-.-10-5-6-X-X-X-6-X-X-6-X-X-3-3-3-5-1-X-X-1-X-0--|
C|--10-.-10-5-6-X-X-X-6-X-X-6-X-X-3-3-3-5-1-X-X-1-X-0--|

D|-----------------------------------------------------|
A|-----------------------------------------------------|
F|-----------------------------------------------------|
C|--10-.-10-5-6-X-X-X-6-X-X-6-X-X-3-3-3-5-1-X-X-1-X-3--|     
G|--10-.-10-5-6-X-X-X-6-X-X-6-X-X-3-3-3-5-1-X-X-1-X-3--|
C|--10-.-10-5-6-X-X-X-6-X-X-6-X-X-3-3-3-5-1-X-X-1-X-3--|

D|-----------------------------------------------------|
A|-----------------------------------------------------|
F|-----------------------------------------------------|
C|--10-.-10-5-6-X-X-X-6-X-X-6-X-X-3-3-3-5-1-X-X-1-X-0--|     
G|--10-.-10-5-6-X-X-X-6-X-X-6-X-X-3-3-3-5-1-X-X-1-X-0--|
C|--10-.-10-5-6-X-X-X-6-X-X-6-X-X-3-3-3-5-1-X-X-1-X-0--|






D|-----------------------------------------------------|
A|-----------------------------------------------------|
F|-----------------------------------------------------|
C|--10-.-10-5-6-X-X-X-6-X-X-6-X-X-3-3-3-5-1-X-X-1-X-3--|     
G|--10-.-10-5-6-X-X-X-6-X-X-6-X-X-3-3-3-5-1-X-X-1-X-3--|
C|--10-.-10-5-6-X-X-X-6-X-X-6-X-X-3-3-3-5-1-X-X-1-X-3--|





D|-----------------------------------------------------|
A|--6-6-6-6-6-6-6-6-6-6-6-6-9-9-9-9-9-9-9-9-9-9-9-9----|
F|-----------------------------------------------------|
C|-----------------------------------------------------|     
G|-----------------------------------------------------|
C|-----------------------------------------------------|

D|------------------------------------------------------------------|
A|------------------------------------------------------------------|
F|------------------------------------------------------------------|
C|------------------------------------------------------------------|
G|--10-10-10-9-9-9-8-8-8-6-6-6-2/3-3-3-3-3-3-3-3-6-3-3-3-3-3-3-3----|
C|------------------------------------------------------------------|
			  ________________________________________
			  |		1
D|-|------------------------------|------------------------------------|-|
A|-|-*----------------------------|----------------------------------*-|-|
F|-|------------------------------|------------------------------------|-|
C|-|------------------------------|-8-5-5-5-5-5-5-5-9-5-5-5-5-5-5-5----|-|
G|-|-*-10-10-10-9-9-9-8-8-8-6-6-6-|----------------------------------*-|-|
C|-|------------------------------|------------------------------------|-|
____________________________________
		2	       |	
D|----------------------------------|---------------------------------|
A|----------------------------------|---------------------------------|
F|----------------------------------|---------------------------------|
C|--8-8-8-8-8-8-5-8-9-9-9-9-9-9-9-9-|-5-5-X-X-4-4-X-X-----------------|
G|----------------------------------|-5-5-X-X-4-4-X-X-6-3-3-3-3-3-----|
C|----------------------------------|-5-5-X-X-4-4-X-X-----------------|

D|-----------------------------------------------------------------------|
A|-----------------------------------------------------------------------|
F|-----------------------------------------------------------------------|
C|-------------5-5-X-X-4-4-X-X-8-5-5-5-5-5-9-5-5-5-5-5-5-5-X-X-4-4-X-X --|   
G|-2-3-3-3-3-3-5-5-X-X-4-4-X-X-------------------------5-5-X-X-4-4-X-X --|
C|-------------5-5-X-X-4-4-X-X-------------------------5-5-X-X-4-4-X-X --|



D|-------------------------------------------------------------|
A|-------------------------------------------------------------|
F|-------------------------------------------------------------|
C|--------------------------5-5-X-X-5-X-X-8-10 Slide off-------|     
G|--6-3-3-3-3-3-2-3-3-3-3-3-5-5-X-X-5-X-X-8-10 Slide off-------|
C|--------------------------5-5-X-X-5-X-X-8-10 Slide off-------|


There is a second guitar at the and after 3:05: 
D|------------------------------------------------------------------|
A|--8-8-8-7-7-7-6-6-6-4-4-4-4-1-1-1-1-1-1-1-4-1-1-1-1-1-1-1---------|
F|------------------------------------------------------------------|
C|------------------------------------------------------------------|
G|------------------------------------------------------------------|
C|------------------------------------------------------------------|
			  ________________________________________
			  |		1			
D|-----------------------------|--6-3-3-3-3-3-3-3-7-3-3-3-3-3-3-3---|-|
A|--8-8-8-7-7-7-6-6-6-4-4-4----|----------------------------------*-|-|
F|-----------------------------|------------------------------------|-|
C|-----------------------------|------------------------------------|-|
G|-----------------------------|----------------------------------*-|-|
C|-----------------------------|------------------------------------|-|




____________________________________
		2	       |	
D|--6-6-6-6-6-6-3-6-7-7-7-7-7-7-7-7-||
A|----------------------------------||
F|----------------------------------||
C|----------------------------------||
G|----------------------------------||
C|----------------------------------||





I hope you enjoyed playing this song, its such a great song :D
I'm not that good yet to tab or even play the solo... I hope somebody will find a way to and tab it ;)
If you see any mistakes or you have something to ask or to say you can contact me at crazypumba@live.nl


You really should buy there album if you don't have it yet!!! Its really worth your money :)!!!


/ - Slide
P - Pull-off

Добавлено: 20.07.2012
Другие материалы по этой песне:
  • Аккорды и текст

Страница создана 26.02.2012
http://primanota.ru/becoming-the-archetype/monolith-chords.htm
Привет, Гость.
Предлагаем пройти революционный курс по гитаре.
Подарок от PrimaNota.Ru, забирай!