PrimaNota.ru - самый крупный в мире бесплатный архив песенных текстов, аккордов, табулатур и нот


Becoming The Archetype - Epoch Of War - таба, видео

Регистрация Запомнить меня
Войти через:  Facebook Google Twitter Vk Yandex Mail.ru

Becoming The Archetype - Epoch Of War - таба, видео

Печатать
Просмотров: 151
this is the beginning of Epoch Of War

Eb|---------------------------------------------------------------|
Bb|---------------------------------------------------------------|
F |-----------------------------------------------8-7-------------|
C |-5-7-8-5-7-8-10-8-7-8-7-4---5-7-8-5-7-8-10-7-8-----10-8-7------| x2
G |---------------------------------------------------------------|
C |---------------------------------------------------------------|

Eb|------------------------------------------------------10-9---------|
Bb|-7-9-10-7-9-10-12-10-9-10-9-6---7-9-10-7-9-10-12-9-10------12-10-9-|
F |-------------------------------------------------------------------|
C |-------------------------------------------------------------------| x2
G |-------------------------------------------------------------------|
C |-------------------------------------------------------------------|

the heavier part

Eb|-------------------------------------------------------------------|
Bb|-------------------------------------------------------------------|
F |-------------------------------------------------------------------|
C |-------------------------------------------------------------------|
G |-------------------------------------------------------------------|
C |-1-1-111-1-1-111-1--3-5---3--3-5--1-1-111-1-1-111-1--3-5---3-1-0---|

Eb|--------------------------------------------------------------------|
Bb|------------------------------------------------------------verse---|
F |--------------------------------------------------------------------|starts
C |--------------------------------------------------1-1-1-1---here----|
G |--------------------------------------------------1-1-1-1-----^-----|
C |-1-1-111-1-1-111-1--3-5---3--3-5--1-1-111-1-1-111-1-1-1-1-----------|

i apologize if i messed up on the amount of picking or anything, but i don't think i 
you'll understand this tab if you know the song
Добавлено: 30.04.2012
Другие материалы по этой песне:

Страница создана 31.03.2012
http://primanota.ru/becoming-the-archetype/epoch-of-war-chords.htm
Привет, Гость.
Предлагаем пройти революционный курс по гитаре.
Подарок от PrimaNota.Ru, забирай!