PrimaNota.ru - самый крупный в мире бесплатный архив песенных текстов, аккордов, табулатур и нот


Becoming The Archetype - Elegy - таба, видео

Регистрация Запомнить меня
Войти через:  Facebook Google Twitter Vk Yandex Mail.ru

Becoming The Archetype - Elegy - таба, видео

Печатать
Просмотров: 173
Song: Elegy
Artist: Becoming The Archetype
Album: Terminate Damnation
Tabbed By: Jordan Palmer

Drop C Tuning

Tab Legend

..... = Palm Mute

~ = Let Ring

Intro: (there are a few other notes in here, but they are to faint for me to tell what they are)

D|----------------|
A|----------------|
F|----------------|
C|----------------|
G|--5--7--8--10---|
C|----------------|

D|-------------------------------------|
A|-------------------------------------|
F|--777777777777-----------------------|
C|--777777777777-888888--777777--------|  X2
G|--555555555555-888888--777777--------|
C|---------------888888--777777--------|

D|-------------------------------------|
A|-------------------------------------|
F|-------------------------------------|
C|--777777777777-----------------------|  X2
G|--555555555555-888888--777777--------|
C|---------------888888--777777--------|
        ......................................................

D|-------------------------------------|
A|-------------------------------------|
F|--777777777777-----------------------|
C|--777777777777-888888--777777--------|  X2
G|--555555555555-888888--777777--------|
C|---------------888888--777777--------|

the notes in quotations are clean and when it hits the 8, 3, 3 the distortion comes on
D|----------------------------------------------------------------------------------|
A|----------------------------------------------------------------------------------|
F|----------------------------------------------------------------------------------|
C|--"14-14-14-14-14-14--10-10-10-10-10-10---14-14-14-14-14-14"-----8~---------3-3---|
G|--"12-12-12-12-12-12--8--8--8--8--8--8----12-12-12-12-12-12"-----8~---------3-3---|
C|--"12-12-12-12-12-12--8--8--8--8--8--8----12-12-12-12-12-12"-----8~---------3-3---|

Verse:

D|------------------------------------------|
A|------------------------------------------|
F|------------------------------------------|
C|------5h7---3/2-------------5h7----8-8~---|
G|------------------5p3h5-------------------|
C|--000-----0-----0-------000------0--------|
    ...     .     .       ...      .

D|-------------------------------------|
A|-------------------------------------|
F|-------------------------------------|
C|------5h7---3/2------------10~--8~---|
G|--0---------------5p3h5----10~--8~---|
C|--0-------0-----0----------10~--8~---|
            .     .

D|------------------------------------------|
A|------------------------------------------|
F|------------------------------------------|
C|------5h7---3/2-------------5h7----8-8~---|
G|------------------5p3h5-------------------|
C|--000-----0-----0-------000------0--------|
    ...     .     .       ...      .

D|------------------------------------------|
A|------------------------------------------|
F|------------------------------------------|
C|------5h7---3/2-------------5h7----8-10~--|
G|------------------5p3h5-------------------|
C|--000-----0-----0-------000------0--------|
    ...     .     .       ...      .


D|------------------------------------------|
A|------------------------------------------|
F|------------------------------------------|
C|------5h7---3/2-------------5h7----8-8~---|
G|------------------5p3h5-------------------|
C|--000-----0-----0-------000------0--------|
    ...     .     .       ...      .

D|------------------------------------------|
A|------------------------------------------|
F|------------------------------------------|
C|------5h7---3/2-------------5h7---12-14v~-|
G|------------------5p3h5-------------------|
C|--000-----0-----0-------000------0--------|
    ...     .     .       ...      .


D|----------------------------------------|
A|----------------------------------------|
F|-----------------------10~--9~----------|
C|-----------15---14~----10~--9~----------|
G|-----8-----13---12~----8~---7~----------|
C|-000---000----0-------------------------|


D|------------------------------------|
A|------------------------------------|
F|------------------------------------|
C|-----------15---14~--10~-----8~-----|
G|-----8-----13---12~--10~-----8~-----|
C|-000---000----0------10~-----8~-----|

D|----------------------------------------|
A|----------------------------------------|
F|-----------------------10~--9~----------|
C|-----------15---14~----10~--9~----------|
G|-----8-----13---12~----8~---7~----------|
C|-000---000----0-------------------------|


D|---------------------------------------|
A|---------------------------------------|
F|-----------------------5~--7~----------|
C|-----------15---14~----5~--7~----------|
G|-----8-----13---12~----3~--5~----------|
C|-000---000----0------------------------|


D|-----------------------------------------------------------|
A|-----------------------------------------------------------|
F|---------12h14---14/12-----10p9h10------12h14---15-15~-----|
C|-----------------------------------------------------------|
G|-----------------------------------------------------------|
C|--000----------0------0-------------000--------0-----------|
    ...          .      .             ...        .


D|---------------------------------------------------------|
A|---------------------------------------------------------|
F|---------12h14---14/12-----10p9h10-------12h14---15-17~--|
C|---------------------------------------------------------|
G|---------------------------------------------------------|
C|--000----------0------0-------------000--------0---------|
    ...          .      .             ...        .

D|---------------------------------------------------------|
A|---------------------------------------------------------|
F|---------12h14---14/12-------------------12h14---15-15~--|
C|---------------------------------------------------------|
G|---------------------------------------------------------|
C|--000----------0------0-------------000--------0---------|
    ...          .      .             ...        .


D|---------------------------------------------------------|
A|---------------------------------------------------------|
F|---------12h14---14/12-------------------12h14---15-17~--|
C|---------------------------------------------------------|
G|---------------------------------------------------------|
C|--000----------0------0-------------000--------0---------|
    ...          .      .             ...        .

D|----------------------------------------|
A|----------------------------------------|
F|-----------------------10~--9~----------|
C|-----------15---14~----10~--9~----------|
G|-----8-----13---12~----8~---7~----------|
C|-000---000----0-------------------------|

D|------------------------------------|
A|------------------------------------|
F|------------------------------------|
C|-----------15---14~--10~-----8~-----|
G|-----8-----13---12~--10~-----8~-----|
C|-000---000----0------10~-----8~-----|

D|----------------------------------------|
A|----------------------------------------|
F|-----------------------10~--9~----------|
C|-----------15---14~----10~--9~----------|
G|-----8-----13---12~----8~---7~----------|
C|-000---000----0-------------------------|


D|---------------------------------------|
A|---------------------------------------|
F|-----------------------5~--7~----------|
C|-----------15---14~----5~--7~----------|
G|-----8-----13---12~----3~--5~----------|
C|-000---000----0------------------------|

D|------------------------------------------------------------|
A|------------------------------------------------------------|
F|------------------------------------------------------------|
C|------------------------------------------------------------|
G|-000000-888888-000000-10-10-10-10-10-10--000000-888888-7~---|
C|-000000-888888-000000-10-10-10-10-10-10--000000-888888-7~---|

D|----------|---------------------|---------------------|
A|----------|---------------------|---------------------|
F|----------|---------------------|---------------------|
C|------7-8-|-----7-9-8-7-----7-8-|-----7-9-8-7-----7-8-|
G|--5-8-----|-5-8---------5-8-----|-5-8---------5-8-----|
C|----------|---------------------|---------------------|

D|----------------------------------------|
A|----------------------------------------|
F|----------------------------------------|
C|-------------7-8------------7-8-9-8-----|
G|---------5-8------------5-8-------------|
C|--00-00--------------00-----------------|
    .. ..              ..


D|------------------------------------------------|
A|------------------------------------------------|
F|------------------------------------------------|
C|-------------7-8---7-9-8-7----------7-8-9-8-----|
G|---------5-8-----5--------------5-8-------------|
C|--00-00----------------------00-----------------|
    .. ..                      ..

D|---------------------------------------------------------------------------------|
A|---------------------------------------------------------------------------------|
F|---------------------------------------------------------------------------------|
C|-12-12-12-12-12-12-12-12-11-11-11-11-11-11-11-11-7-7-7-7-7-7-7-7-8-8-8-8-8-8-8-8-|

G|---------------------------------------------------------------------------------|
C|---------------------------------------------------------------------------------|

continued from riff above
D|-----------------------------------------------------------------|
A|-----------------------------------------------------------------|
F|-----------------------------------------------------------------|
C|-3-3-3-3-3-3-3-3-2-2-2-2-2-2-2-2-0-0-0-0-0-0-0-0-0-0-0-0-0-0-0-0-| repeat two measures twice

G|-----------------------------------------------------------------|
C|-----------------------------------------------------------------|

D|-------------------------------------------------------------------------|
A|-------------------------------------------------------------------------|
F|-10-10-10-10-10-10-10-10-9-9-9-9-9-9-9-9-6-6-6-6-6-6-6-6-7-7-7-7-7-7-7-7-|

C|-------------------------------------------------------------------------|

G|-------------------------------------------------------------------------|
C|-------------------------------------------------------------------------|

continued from riff above
D|-----------------------------------------------------------------|
A|-----------------------------------------------------------------|
F|-3-3-3-3-3-3-3-3-6-6-6-6-6-6-6-6-7-7-7-7-7-7-7-7-----------------|
C|-----------------------------------------------------------------| repeat two measures twice

G|-----------------------------------------------------------------|
C|-----------------------------------------------------------------|

repeat the four measures above twice

you'll get the hang of it lol.

i'll tab the rest later but that is the first 2 and a half minutes
Добавлено: 16.05.2012
Другие материалы по этой песне:

Страница создана 06.03.2012
http://primanota.ru/becoming-the-archetype/elegy-chords.htm
Привет, Гость.
Предлагаем пройти революционный курс по гитаре.
Подарок от PrimaNota.Ru, забирай!