PrimaNota.ru - самый крупный в мире бесплатный архив песенных текстов, аккордов, табулатур и нот


Becoming The Archetype - Artificial Immortality - таба, бас-таба, видео

Регистрация Запомнить меня
Войти через:  Facebook Google Twitter Vk Yandex Mail.ru

Becoming The Archetype - Artificial Immortality - таба, бас-таба, видео

Печатать
Просмотров: 132
this song is in drop C. its pretty easy to figure out while
listening to it. and dont point fingures saying i didn't get
the exact amount of times for each note, its a hard song and
 the only tab of this song online. so enjoy. =)

 h=harmonic b=bend .=Palm Mute(below each section)

INTRO:
D)---------------------8-----------------------------------|
A)------------------------10-------------------------------|
F)-----7-7-777-9-10-10-------910-6-6-6-66------------------|
C)----------------------------------------7-7-5------------|
G)----------------------------------------------8-7-5------|
C)---------------------------------------------------------|
           ...

D)---------------------8-----9-10-9-99-10-12-12b-109109-8-10--|
A)------------------------10----------------------------------|
F)-----7-7-777-9-10-10----------------------------------------|
C)------------------------------------------------------------| X2
G)------------------------------------------------------------|
C)------------------------------------------------------------|
           ...

Verse1:
D)---------------------------------------------------------|
A)---------------------------------------------------------|
F)---------------------------------------------------------|
C)---------------------------------------------------------| X2
G)----------3-5-3---------3-5-3-6---------3-5-3-6-66-6-5-1-|
C)-0-00-00-------6-0-00-0---------0-00-00-------6-66-6-5-1-|
     .. ..           .. .           .. ..         .. . . .

D)----------------------------------------------------------|
A)----------------------------------------------------------|
F)----------------------------------------------------------|
C)--------5-7-5------------5-7-5-8--------5-7-5-------------| X2
G)--------------6-0------------------------------6-66-6-5-1-|
C)-000000-----------000000---------000000--------6-66-6-5-1-|
   ......           ......         ......          .. . . .

Chorus:
D)----------------------------------------------------------|
A)----------------------------------------------------------|
F)----------------------------------------------------------|
C)-0--1--3--4--8--7--4--5------0-1-3-4-5-8-7-11-12----------|
G)-0--1--3--4--8--7--4--5--(X2)-----------------------------|
C)-0--1--3--4--8--7--4--5-----------------------------------|
   .  .  .  .  .  .  .  .

intro X1
verse X2
chorus X1

bridge and outro:
D)--------------------|
A)--------------------|
F)--------------------|
C)-0------------------|
G)-0------------------|
C)-0------------------|

D)--------------------------------------------------------|
A)--------------------------------------------------------|
F)--------------------------------------------------------|
C)-6-5-0-3-0-----6-5-0-3-0-0-00---------------------------|
G)-6-5-0-3-0-3h--6-5-0-3-0-0-00---------------------------|
C)-6-5-0-3-0-----6-5-0-3-0-0-00---------------------------|
       .             .     . ..

D)---------------------------------------------------------|
A)---------------------------------------------------------|
F)---------------------------------------------------------|
C)-6-00-00-5-00-00---000000-0-00-00----6-00-00-5-00-00-----|
G)-6-00-00-5-00-00---000000-0-00-00----6-00-00-5-00-00--3h-|
C)-6-00-00-5-00-00---000000-0-00-00----6-00-00-5-00-00-----|
     .. ..   .. ..   ...... . .. ..      .. ..   .. ..

D)-----------------------------------------------|
A)-----------------------------------------------|
F)-----------------------------------------------|
C)-6-00-00-5-00-00-6-00-5-000000-----------------|X5
G)-6-00-00-5-00-00-6-00-5-000000-----------------|
C)-6-00-00-5-00-00-6-00-5-000000-----------------|
     .. ..   .. ..   ..   ......

i hope you enjoy learnig this as much as i did playing it. =)
please leave a comment and/or rating. =)
Добавлено: 10.03.2012
Другие материалы по этой песне:
  • Аккорды и текст

Страница создана 10.03.2012
http://primanota.ru/becoming-the-archetype/artificial-immortality-chords.htm
Привет, Гость.
Предлагаем пройти революционный курс по гитаре.
Подарок от PrimaNota.Ru, забирай!