PrimaNota.ru - самый крупный в мире бесплатный архив песенных текстов, аккордов, табулатур и нот


Beck - Truckdrivin Neighbors Downstairs Yellow Sweat - текст песни, таба, видео

Регистрация Запомнить меня
Войти через:  Facebook Google Twitter Vk Yandex Mail.ru

Beck - Truckdrivin Neighbors Downstairs Yellow Sweat - текст песни, таба, видео

Печатать
Просмотров: 46
-------------------------------------------------------------------------------
              Truckdrivin Neighbors Downstairs Yellow Sweat - Beck
-------------------------------------------------------------------------------
Tabbed by: kurbit

Tuning: Eb (Half-step down)


Intro:
|---------------------------------------0-----|
|-1-1h3~-3b5-3-3-3-3---1-1h3~-6-5-3-3b5---3-3-|
|--------------------0-0-0-0------------------|
|---------------------------------------------|
|---------------------------------------------|
|---------------------------------------------|


Verse:
|--------------------------------------------------|
|-------------------------------------1-1-1--------|
|-2-2-2-0-0-0-0---0-----0h2-2-2-2-2-2--------------|
|---------------3---3-0-0--------------------0-3-3-|
|--------------------------------------------------|
|--------------------------------------------------|


Guitar 2 Riff:
Notes in brackets are only played sometimes
|-----------------------------------------|
|-----------------------------------------|
|-----------------------------------------|
|-0-0-0-(0)-------------------------------|
|-----------3-3-3-(3)-2-2-2-(2)-----------|
|-------------------------------1-1-1-(1)-|



Chorus:
   F  C  G  D  A
e|-1--0--3--2--0-|
B|-1--1--3--3--2-|
G|-2--0--0--2--2-|
D|-3--2--0--0--2-|
A|-3--3--2--x--0-|
E|-1--x--3--x--x-|

F             C                 G 
Its just the shit kicking speed takin truck drivin
D             A       G A 
neighbors downstairs



************************************

| /   slide up
| \   slide down
| h   hammer-on
| p   pull-off
| ~   vibrato
| +   harmonic
| x   Mute note
| b   Bend
| pb  Pre-bend
| br  Bend release
| pbr Pre-bend release
| brb Bend release bend

************************************
Добавлено: 03.04.2016
Другие материалы по этой песне:

Страница создана 28.03.2012
http://primanota.ru/beck/truckdrivin-neighbors-downstairs-yellow-sweat-chords.htm
Привет, Гость.
Предлагаем пройти революционный курс по гитаре.
Подарок от PrimaNota.Ru, забирай!