PrimaNota.ru - самый крупный в мире бесплатный архив песенных текстов, аккордов, табулатур и нот


Beck - Ramshackle - текст песни, таба, видео

Регистрация Запомнить меня
Войти через:  Facebook Google Twitter Vk Yandex Mail.ru

Beck - Ramshackle - текст песни, таба, видео

Печатать
Просмотров: 252
Уроки эстрадного вокала в Санкт-Петербурге
Авторы музыки: Beck Hansen
Авторы текста: Beck Hansen
Beck - Ramshackle

tabbed by Alec LaLonde (www.aleclalonde.com)

One of my favorite Beck tunes...

intro - free time
e-0--------------------------------------------|
B-0--------------------------------------------|
G-1----1--1--1--1--2--2-----0----0--0--0--1--1-|
D-2----2--2--2--2--2--2-----2----2--2--2--2--2-|
A-2----2--2--2--2--2--2-----2----2--2--2--2--2-|
E-0----0--0--0--0--0--0-----0----0--0--0--0--0-|


e-0-------------------------------------------------|
B-0-------------------------------------2-----------|
G-1----1--1--1--1--2--2-----2-/-4--4----x--2-p-1--1-|
D-2----2--2--2--2--2--2-----2---2--2----2--2---2--2-|
A-2----2--2--2--2--2--2-----2---2--2----2--2---2--2-|
E-0----0--0--0--0--0--0-----0---0--0----0--0---0--0-|

verse

e-0--------------------------------------------------|
B-0------------------2-------------------------------|
G-1----1--2--4--1----x--4--1--1----1--2--2--2-/-4--4-|
D-2----2--2--2--2----2--2--2--2----2--2--2--2---2--2-|
A-2----2--2--2--2----2--2--2--2----2--2--2--2---2--2-|
E-0----0--0--0--0----0--0--0--0----0--0--0--0---0--0-|

You've been so long
Your blind eyes are gone
Your old bones are on their own

So take off your coat
Put a song in your throat
Let the dead-beats pound all around

chorus:
e-0------------------------------------------------------------0-|
B-0----2-------------2-------------2---------------------------0-|
G-1----x--4--1--1----x--4--1--1----x--4--1-/-3--3--3--3--4--3--1-|
D-2----2--2--2--2----2--2--2--2----2--2--2-/-4--4--4--4--2--4--2-|
A-2----2--2--2--2----2--2--2--2----2--2--2-/-4--4--4--4--4--4--2-|
E-0----0--0--0--0----0--0--0--0----0--0--0-/-2--2--2--2--2--2--0-|

We will go
Nowhere we know
We don't have to talk at all
Hand me downs
Flypaper towns
Stuck together
One and all

The bargains you drive
Buckets and bags
And all your belongings

Your train's in the sand
Ramshackle land
Let the rats watch the races

We will go
Nowhere we know
'Til we find our one and all
Hand me downs
Flypaper towns
Stuck together
One and all

Bridge:
e-0------------------------------------------------------------0-|
B-0----4--2----------4--2----------4--2------------------------0-|
G-1----x--x--1--1----x--x--1--1----x--x--1-/-3--3--3--3--4--3--1-|
D-2----2--2--2--2----2--2--2--2----2--2--2-/-4--4--4--4--2--4--2-|
A-2----2--2--2--2----2--2--2--2----2--2--2-/-4--4--4--4--4--4--2-|
E-0----0--0--0--0----0--0--0--0----0--0--0-/-2--2--2--2--2--2--0-|

Bridge 2:
e-0------------------------------------------|
B-0------------------------------------------|
G-1----1--1--1--1--1--1--1--0--0--0--0--1--1-|
D-2----2--2--2--2--1--1--1--3--3--3--3--2--2-|
A-2----2--2--2--2--2--2--2--2--2--2--2--2--2-|
E-0----0--0--0--0--0--0--0--0--0--0--0--0--0-|

Praises get spent
Your trick face is bent
Pigsties and prizes

'Cause there's no kind of 'well'
You're suiting yourself
You leave yourself behind

We will go
Nowhere we know
'Til we find our one and all
Your hand me downs
Flypaper towns
Stuck together
One and all

Bridge and you're done
Добавлено: 30.03.2012
Другие материалы по этой песне:
  • Аккорды и текст

Страница создана 16.03.2012
http://primanota.ru/beck/ramshackle-chords.htm
Привет, Гость.
Предлагаем пройти революционный курс по гитаре.
Подарок от PrimaNota.Ru, забирай!