PrimaNota.ru - самый крупный в мире бесплатный архив песенных текстов, аккордов, табулатур и нот


Beck - Got no Mind - аккорды и текст, таба, видео

Регистрация Запомнить меня
Войти через:  Facebook Google Twitter Vk Yandex Mail.ru

Beck - Got no Mind - аккорды и текст, таба, видео

Печатать
Просмотров: 166
Got no Mind
Beck
		   m: SPOOL   63  SPOOL63@aol.com>

GOT NO MIND

by BECK

this is a TERRIFIC song off the Beercan cd single.


D#    668xxx	A#    688xxx	C#    x466xx

F       133xxx	G#    466xxx	F#    244xxx

INTRO:  D#


LEAD GUITAR PART BEFORE EACH VERSE  (differs a little for each verse)

E|----------------------------------------------------------------------
B|----------------------------------------------------------------------
G|----------------------------------------------------------------------
D|--------------------6---6---6---6---8---8---8---8---6---6---6---6-----
A|-----6---6---6---6----------------------------------------------------
E|----------------------------------------------------------------------

E|---------------------------
B|---------------------------
G|---------------------------
D|--5s6---5s6---5s6----------
A|---------------------------
E|---------------------------



D#    A#   		C#	D#
Tonight, the city is turned off
D#		G#	              D#
Look at me,  I'm wearing your shirt.... and it's burnt
D#	             A#                     C#		D#
Dissentious morons are dissing you, dissing me
D#	           G# 	         A#
Keeping the friendship of massive supply

F		      G#	    F#	F
	That's why
F		         G#	   F#        F
	I got no mind
F		         G#	   F#        F
	I got no mind
F		         G#	   F#        D# ............ back into verse
	I got no mind

Give the finger to the folk singer
I'm sure he'd appreciate it deeply
When there's smoke and there's grease and an unperfect peice
The free n' easy letdown will make it all come alive

That's why
I got no mind
I got no mind
I got no mind

MAIN GUITAR SOLO

E|---------------------------------------------------------------------
B|---------------------------------------------------------------------
G|--8--8--8--8--7--7--7--7--10--10--10--10s12--12--12------13--12--10--
D|---------------------------------------------------------------------
A|---------------------------------------------------------------------
E|---------------------------------------------------------------------

E|---------------------------------------------------------------------
B|---------------------------------------------------------------------
G|-10--12--8-----------------------------------------------------------
D|----------------17--17--17--17--18--18--18--18---13--12--13--12---10-
A|---------------------------------------------------------------------
E|---------------------------------------------------------------------


E|--------------------------------
B|--------------------------------
G|--------------------------------
D|-10--12--8----8---8--8----------
A|-------------------------------- 		GO INTO A# TO CHORUS
E|--------------------------------

That's why
I got no mind
I got no mind
I got no mind

Makeshift scene mildly insulting
You really said it when you said I was just a scavenger
There's a headbanging corpse, just take it to the source
Take the plug, unplugged, plug it up, rip the plug right outta the wall

That's why
I got no mind
I got no mind
I got no mind
That's why
I got no mind
I got no mind
I got no mind

Pump up the volume
Pump up the volume
Pump up the volume
Pump up the volume


thanks,

chris  (spool63@aol.com)     
Добавлено: 22.10.2013
Другие материалы по этой песне:
  • Аккорды и текст

Страница создана 02.04.2012
http://primanota.ru/beck/got-no-mind-chords.htm
Привет, Гость.
Предлагаем пройти революционный курс по гитаре.
Подарок от PrimaNota.Ru, забирай!