PrimaNota.ru - самый крупный в мире бесплатный архив песенных текстов, аккордов, табулатур и нот


Beck Mongolian Chop Squad - Like A Foojin - таба, бас-таба, видео

Регистрация Запомнить меня
Войти через:  Facebook Google Twitter Vk Yandex Mail.ru

Beck Mongolian Chop Squad - Like A Foojin - таба, бас-таба, видео

Печатать
Просмотров: 397
Уроки эстрадного вокала в Санкт-Петербурге
E-------------------------------------------------|
B-------------------------------------------------|
G-------------------------------------------------|
D----------------------------------------------3--|
A3--1--3--1-3-1-3-1---3--1--3-1-3-1--3--3--1---1--|
D3--1--3--1-3-1-3-1---3--1--3-1-3-1--3--3--1--(1)-|

Verse

E6-6-x-6-x-x-6-x-6------|
B6-6-x-6-x-x-6-x-6------|
G5-5-x-5-x-x-5-x-5------|
D-----------------------|
A-----------------------|
D-----------------------|

Pre-Chorus

E-----------------------|
B9-9-9-9-9-9-9-9-9-9----|
G9-9-9-9-9-9-9-9-9-9----|
D9-9-9-9-9-9-9-9-9-9----|
A7-7-7-7-7-7-7-7-7-7----|
D-----------------------|

E--------------------------------------------------------|
B--------------------------------------------------------|
G--------------------------------------------------------| 2 Times
D3-x-x-x-3-xs-6-x-x-x-x-x-x--4-x-x-x-4-x-7-x-x-x-x-x-x-x-|
A3-x-x-x-3-xs-6-x-x-x-x-x-x--4-x-x-x-4-x-7-x-x-x-x-x-x-x-|
D3-x-x-x-3-xs-6-x-x-x-x-x-x--4-x-x-x-4-x-7-x-x-x-x-x-x-x-|

Chorus

E--------------------------------------|
B--------------------------------------|
G--------------------------------------|
D--------------------------------------|
A33333333-s66666666-44444444-s77777777-|
D33333333-s66666666-44444444-s77777777-|
Добавлено: 29.06.2012
Другие материалы по этой песне:

Страница создана 03.04.2012
http://primanota.ru/beck-mongolian-chop-squad/like-a-foojin-chords.htm
Привет, Гость.
Предлагаем пройти революционный курс по гитаре.
Подарок от PrimaNota.Ru, забирай!