PrimaNota.ru - самый крупный в мире бесплатный архив песенных текстов, аккордов, табулатур и нот


Beck Mongolian Chop Squad - I Call You Love - таба, видео

Регистрация Запомнить меня
Войти через:  Facebook Google Twitter Vk Yandex Mail.ru

Beck Mongolian Chop Squad - I Call You Love - таба, видео

Печатать
Просмотров: 252
Just the intro of the song.



e|-------------------------------------------------------------|
B|---------2----------------2----------------------------------|
G|-----------3----------------3--------------------------------|
D|-------------------------------------------------------------|
A|------4----------------4-------------------------------------|
E|---2-------(2)------2-------(2)------------------------------|

e|-------------------------------------------------------------|
B|----------4-------------------4------------------------------|
G|--------4---4---------------4---4----------------------------|
D|----------------------2--------(2)---------------------------|
A|---2-------(2)-----------------------------------------------|
E|-------------------------------------------------------------|

Continue back to the top..
Добавлено: 14.04.2012
Другие материалы по этой песне:

Страница создана 14.04.2012
http://primanota.ru/beck-mongolian-chop-squad/i-call-you-love-chords.htm
Привет, Гость.
Предлагаем пройти революционный курс по гитаре.
Подарок от PrimaNota.Ru, забирай!